Our Lady Peace - Not Enough Chords & Tabs

 

Not Enough Chords & Tabs

Our Lady Peace Chords & Tabs

Version: 2 Type: Tab 3 ratings
1 star 2 stars 3 stars 4 stars 5 stars
comments

Not Enough Tab

Our Lady Peace - Not Enough

Artist's: Our Lady Peace
Song Title: Not Enough
Album: Gravity
Tabbed By: Donkey Fly 



Intro- (clean)
e----------------------------0----------2----------------------0-------|
B-----------5------------------------------0--4-----------------------|
G----------------------4---------------------------------4------------|
D-------6-----------2-----2---------------------------4-----4----------| x2
A---4------------0------------------2--------------2------------------|
E--------------------------------0------------------------------------|

Verse
e----------------------------------0--------2----------------|
B----------5-----------------------------------0—-4----------|
G--------6---6---------------4--------------------------4—-4-|
D------6-------6----------2-----2-----------------------4—-4-|
A----4-----------------0-----------------2-----------2—-2—-2-|
E-------------------------------------0----------------------|

e--------------------------------0--0----------------------------------|
B----------5------------------------0----------4--4----4------------—--|
G--------6----6--------------4-----------------2--2----2---------4--4--|
D------6--------6---------2----2---------------------------------4--4--|
A---4-----------------0---------------------2-----------------2--2--2--|
E-----------------------------------------0----------------------------|

Chorus x2
e---------------------------------------------------------------|
B---------------------------------------------------------------|
G---4-6--6---6-6--6-6-6-6-6-6-6-6-6--2---2-2--2-2-2-2-2-2-2-2-2-|
D-6-4-6--6---6-6--6-6-6-6-6-6-6-6-6--2---2-2--2-2-2-2-2-2-2-2-2-|
A-6-2-4--4---4-4--4-4-4-4-4-4-4-4-4--0---0-0--0-0-0-0-0-0-0-0-0-|
E-4-------------------------------------------------------------|

-------------------------------------------------------|
-------------------------------------------------------|
-1---1-1--1-1-1-1-1-1-1-1-1--4---4-4--4-4-4-4-4-4------|
-2---2-2--2-2-2-2-2-2-2-2-2--4---4-4--4-4-4-4-4-4------|
-2---2-2--2-2-2-2-2-2-2-2-2--2---2-2--2-2-2-2-2-2------|
-------------------------------------------------------|

Intro To Verse
e-------------------------------0----------2-----------------------------|
B-------5--4-5-4------------------------------0--4-----------------------|
G----------------6--------4---------------------------------4--4---------|
D-----6----------------2-----2---------------------------4-------4-------|
A---4---------------0------------------2--------------2------------------|
E-----------------------------------0------------------------------------|

Verse
e----------------------------------0--------2----------------|
B----------5-----------------------------------0—-4----------|
G--------6---6---------------4--------------------------4—-4-|
D------6-------6----------2-----2-----------------------4—-4-|
A----4-----------------0-----------------2-----------2—-2—-2-|
E-------------------------------------0----------------------|

e--------------------------------0--0----------------------------------|
B----------5------------------------0----------4--4----4------------—--|
G--------6----6--------------4-----------------2--2----2---------4--4--|
D------6--------6---------2----2---------------------------------4--4--|
A---4-----------------0---------------------2-----------------2--2--2--|
E-----------------------------------------0----------------------------|
[ Tab from: http://www.guitartabs.cc/tabs/o/our_lady_peace/not_enough_tab_ver_2.html ]
Chorus x2
e---------------------------------------------------------------|
B---------------------------------------------------------------|
G---4-6--6---6-6--6-6-6-6-6-6-6-6-6--2---2-2--2-2-2-2-2-2-2-2-2-|
D-6-4-6--6---6-6--6-6-6-6-6-6-6-6-6--2---2-2--2-2-2-2-2-2-2-2-2-|
A-6-2-4--4---4-4--4-4-4-4-4-4-4-4-4--0---0-0--0-0-0-0-0-0-0-0-0-|
E-4-------------------------------------------------------------|

-------------------------------------------------------|
-------------------------------------------------------|
-1---1-1--1-1-1-1-1-1-1-1-1--4---4-4--4-4-4-4-4-4------|
-2---2-2--2-2-2-2-2-2-2-2-2--4---4-4--4-4-4-4-4-4------|
-2---2-2--2-2-2-2-2-2-2-2-2--2---2-2--2-2-2-2-2-2------|
-------------------------------------------------------|

Bridge
e----------------------------------------|
B----------------------------------------|
G-6-6—--6-6---6-6---6-6---6-6-6-6-6-6—-6-|
D-6-6---6-6---6-6---6-6---6-6-6-6-6-6—-6-| x5
A-4-4---4-4---4-4---4-4---4-4-4-4-4-4--4-|
E----------------------------------------|

Solo 1   (Turn up The DISTORTION!)

e---------------------------------------------------------------------------|
B-------------5-6-5--------------5-6-5------------------3---------------5---|
G-2--5--7-------------5---3-------------5---2---------5---5-5--5-5-5-5----5-|
D---------------------------------------------------3-----------------------|
A---------------------------------------------------------------------------|
E---------------------------------------------------------------------------|

e---------------------------------------------------------------------------|
B-------------5-6-5--------------5-6-5--------------------------6-8—8—8-----|
G-2--5--7--7----------5---3--------------5---2----------5-7-7-5-------------|
D---------------------------------------------------3-3---------------------|
A---------------------------------------------------------------------------|
E---------------------------------------------------------------------------|

Chorus x2
e---------------------------------------------------------------|
B---------------------------------------------------------------|
G---4-6--6---6-6--6-6-6-6-6-6-6-6-6--2---2-2--2-2-2-2-2-2-2-2-2-|
D-6-4-6--6---6-6--6-6-6-6-6-6-6-6-6--2---2-2--2-2-2-2-2-2-2-2-2-|
A-6-2-4--4---4-4--4-4-4-4-4-4-4-4-4--0---0-0--0-0-0-0-0-0-0-0-0-|
E-4-------------------------------------------------------------|

-------------------------------------------------------|
-------------------------------------------------------|
-1---1-1--1-1-1-1-1-1-1-1-1--4---4-4--4-4-4-4-4-4------|
-2---2-2--2-2-2-2-2-2-2-2-2--4---4-4--4-4-4-4-4-4------|
-2---2-2--2-2-2-2-2-2-2-2-2--2---2-2--2-2-2-2-2-2------|
-------------------------------------------------------|

Outro Solo
e--------------------------------------------|
B--5-5-6-5-6-5-6-5-6-8---5-6-5-6-5-6-5-6-1---|
G--------------------------------------------|
D--------------------------------------------|
A--------------------------------------------|
E--------------------------------------------|

e--------------------------------------------|
B--5-6-5-6-5-6-5-6-5-6-6-13-13-15------------|
G--------------------------------------------|
D--------------------------------------------|
A--------------------------------------------|
E--------------------------------------------|

e----------10----------10-------10-------13-13-13-13-12-12-12-10-10-10-8-10-|
B--5-6-5-------5-6-5--------------------------------------------------------|
G--------7--7-7-------7-7----7-7-7---7-7-5-7--------------------------------|
D---------------------------------------------------------------------------|
A---------------------------------------------------------------------------|
E---------------------------------------------------------------------------|

e---------------------|
B----5-6--------------|
G--------2---------7--|
D----------3--2-3-----|
A--5---------------5--|
E---------------------|

Ok.....this was a reasonably easy song to tab....i hope you enjoy it as much as i did.

Thx
Donkey Fly
Comments