Our Lady Peace - Not Enough Chords & Tabs

 

Not Enough Chords & Tabs

Our Lady Peace Chords & Tabs

Version: 3 Type: Bass Tab 0 ratings
1 star 2 stars 3 stars 4 stars 5 stars
comments

Not Enough Bass Tab

   
Song: Not enough
Artist: Our Lady Peace
Tabbed by: Timothy Morrison
Tuning (5-string) G, D, A, E, B

_-_-_-_-_-_-_-_-_-_-_-_-_-_-_-_-_-_

Intro:
|---------------------|
|---------------------|
|-----5-5-\-------7-7-|
|-----------5-5-/-----|
|-2-2-----------------|

Verse 1:
|---------------------|---------------------|
|---------------------|---------------------|
|-----5-5-\-------7-7-|-----5-5-\-------7-7-|
|-----------5-5-/-----|-----------5-5-/-----|
|-2-2-----------------|-2-2-----------------|

Chorus:
|---------------------|---------------------|
|---------------------|---------------------|
|-----5-5-\-------7-7-|-----5-5-\-------7-7-|
|-----------5-5-/-----|-----------5-5-/-----|
|-2-2-----------------|-2-2-----------------|
[ Tab from: http://www.guitartabs.cc/tabs/o/our_lady_peace/not_enough_btab_ver_3.html ]
Instrumental + verse 2:
|---------------------|---------------------|---------------------|
|---------------------|---------------------|---------------------|
|-----5-5-\-------7-7-|-----5-5-\-------7-7-|-----5-5-\-------7-7-|
|-----------5-5-/-----|-----------5-5-/-----|-----------5-5-/-----|
|-2-2-----------------|-2-2-----------------|-2-2-----------------|

Chorus:
|---------------------|---------------------|
|---------------------|---------------------|
|-----5-5-\-------7-7-|-----5-5-\-------7-7-|
|-----------5-5-/-----|-----------5-5-/-----|
|-2-2-----------------|-2-2-----------------|

Bridge:
|-----------------------------|
|-----------------------------|
|-----------------------------|
|-----------------------------|
|-2-2---2-2---2-2---2-2---2-2-|  5X

Solo:
|---------------------|---------------------|
|---------------------|---------------------|
|-----5-5-\-------7-7-|-----5-5-\-------7-7-|
|-----------5-5-/-----|-----------5-5-/-----|
|-2-2-----------------|-2-2-----------------|

Chorus:
|---------------------|---------------------|
|---------------------|---------------------|
|-----5-5-\-------7-7-|-----5-5-\-------7-7-|
|-----------5-5-/-----|-----------5-5-/-----|
|-2-2-----------------|-2-2-----------------|

Outro:
|---------------------|---------------------|---|
|---------------------|---------------------|---|
|-----5-5-\-------7-7-|-----5-5-\-------7-7-|---|
|-----------5-5-/-----|-----------5-5-/-----|---|
|-2-2-----------------|-2-2-----------------|-2-|...
Comments