Our Lady Peace - Not Enough Chords & Tabs

 

Not Enough Chords & Tabs

Our Lady Peace Chords & Tabs

Version: 2 Type: Bass Tab 0 ratings
1 star 2 stars 3 stars 4 stars 5 stars
comments

Not Enough Bass Tab

Here I have a modified bass tab of Not Enough By Our Lady Peace.
Tabbed by: Kevin Kung
Tune down E string to C#

Verse (Play until drums come in)
G|---------------------------------------------------------------------|
D|---------------------------------------------------------------------|
A|---------------------------------------------------------------------|
C#|---0-----0-----/8-----8-----/3-----3-----/10-----10-----------------|

Chorus
G|---------------------------------------------------------------------|
D|---------------------------------------------------------------------|
A|---------------------------------------------------------------------|
C#|---2--5---0-----0-----/8-----8-----/3-----3-----/10-----10----------| x2
[ Tab from: http://www.guitartabs.cc/tabs/o/our_lady_peace/not_enough_btab_ver_2.html ]
Bridge
G|---------------------------------------------------------------------|
D|---------------------------------------------------------------------|
A|---------------------------------------------------------------------|
C#|---0--0---0---0--0---0---0--0---------------------------------------|

Solo
G|---------------------------------------------------------------------|
D|---------------------------------------------------------------------|
A|---------------------------------------------------------------------|
C#|---0-----0-----/8-----8-----/3-----3-----/10-----10-----------------|

Outro - Repeat Chorus
G|---------------------------------------------------------------------|
D|---------------------------------------------------------------------|
A|---------------------------------------------------------------------|
C#|---2--5---0-----0-----/8-----8-----/3-----3-----/10-----10----------|
Comments