Our Lady Peace - Naveed Chords & Tabs

 

Naveed Chords & Tabs

Our Lady Peace Chords & Tabs

Version: 2 Type: Tab 0 ratings
1 star 2 stars 3 stars 4 stars 5 stars
comments

Naveed Tab

   
#----------------------------------PLEASE NOTE---------------------------------#
#This file is the author's own work and represents their interpretation of the #
#song. You may only use this file for private study, scholarship, or research. #
#------------------------------------------------------------------------------#
#
NAVEED - Our Lady Peace
Tabbed by MARK WIEBE, rwiebe@mindlink.bc.ca

Tune down 1/2 step Eb Ab Db Gb Bb Eb


Fig.1
Bass intro
|---------------------------------------------------|
|---------------------------------------------------|
|---------------------------------------------------|
|-5-5-5-3-3--5-5-5-5--3-3--5-5-5-3-3--5-5-5-5--6-6--|


(the chords are played by a twelve string acoustic and are only 
strummed once each time in fig.2 and 3)

Fig.2
  G                                      G
|------------------------------------------------------------------
|-10h12-12-12--10h12-12-12--12-12p10-----10h12-12-12--10h12-12-12--
|------------------------------------12----------------------------
|------------------------------------------------------------------
|------------------------------------------------------------------
|------------------------------------------------------------------

                 A                       A
-------------------------------------------------------------------------|
-12-12/15--15/17-14-14--14-14-14-14--14--15-14-14--17p14-14-14-14-14-15\-|
-----------------14-14--14-14-14-14--14--14-14-14--14----14-14-14-14-----|
-------------------------------------------------------------------------|
-------------------------------------------------------------------------|
-------------------------------------------------------------------------|


Fig.3
  G                                      G
|------------------------------------------------------------------
|-10h12-12-12--10h12-12-12--12-12p10-----10h12-12-12--10h12-12-12--
|------------------------------------12----------------------------
|------------------------------------------------------------------
|------------------------------------------------------------------
|------------------------------------------------------------------

                 A                      A
-------------------------------------------------------------------------------|
-12-12/15--15/17-14-14--14-14-14-14--14-15-15-15-15-15-15-15-15-17-17-17-17-17\|
-----------------14-14--14-14-14-14--14-14-14-14-14-14-14-14-14-14-14-14-14----|
-------------------------------------------------------------------------------|
-------------------------------------------------------------------------------|
-------------------------------------------------------------------------------|

[ Tab from: http://www.guitartabs.cc/tabs/o/our_lady_peace/naveed_tab_ver_2.html ]
Fig.4 (twelve string acoustic)
|-3-3-3-3-3--3-2--2-2---2-2-2-2-2--2-2--2-2--
|-3-3-3-3-3--3-3--3-3---3-3-3-3-3--3-3--3-3--
|-0-0-0-0-0--0-0--0-0---0-0-0-0-0--0-0--0-0--
|-0-0-0-0-0--0-0--0-0---0-0-0-0-0--0-0--0-0--
|-x-x-x-x-x--x-x--x-x---x-x-x-x-x--x-x--x-x--
|-3-3-3-3-3--3-3--3-3---3-3-3-3-3--3-3--3-3--

-0-0-0-0-0--0-0--0-0---0-0-0-0-0--0-0--0-0--|
-2-2-2-2-2--2-0--0-0---3-3-3-3-3--3-2--2-2--|
-2-2-2-2-2--2-2--2-2---2-2-2-2-2--2-2--2-2--|
-2-2-2-2-2--2-2--2-2---2-2-2-2-2--2-2--2-2--|
-0-0-0-0-0--0-0--0-0---0-0-0-0-0--0-0--0-0--|
--------------------------------------------|


(I didn't transcribe the rest of the electric parts, but they pretty much
follow the same chords as the acoustic, just played a little differently)

Fig.5 
|-0-0-0-0-0--0-0--0-0---------3-3-3-3-3--3-3--3-3--
|-0-0-0-0-0--0-0--0-0--3-3-3--3-3-3-3-3--3-3--3-3--
|-x-x-x-x-x--x-x--x-x--2-2-2--0-0-0-0-0--0-0--0-0--
|-2-2-2-2-2--2-2--2-2--0-0-0--0-0-0-0-0--0-0--0-0--
|-2-2-2-2-2--2-2--2-2--x-x-0--x-x-x-x-x--x-x--x-x--
|-0-0-0-0-0--0-0--0-0--2-2----3-3-3-3-3--3-3--3-3--

-0-0-0-0-0--0-0--0-0--0-0-0-0-0--0-0--0-0--|
-2-2-2-2-2--2-2--2-2--3-3-3-3-3--3-2--2-2--|
-2-2-2-2-2--2-2--2-2--2-2-2-2-2--2-2--2-2--|
-2-2-2-2-2--2-2--2-2--2-2-2-2-2--2-2--2-2--|
-0-0-0-0-0--0-0--0-0--0-0-0-0-0--0-0--0-0--|
-------------------------------------------|


Fig.6
|-3-3-3-3-3--3-3--3-3--0-0-0-0-0--0-3--3-3--|
|-3-3-3-3-3--3-3--3-3--0-0-0-0-0--0-3--3-3--|
|-0-0-0-0-0--0-0--0-0--x-x-x-x-x--x-0--0-0--|
|-0-0-0-0-0--0-0--0-0--2-2-2-2-2--2-0--0-0--|
|-x-x-x-x-x--x-x--x-x--2-2-2-2-2--2-x--x-x--|
|-3-3-3-3-3--3-3--3-3--0-0-0-0-0--0-3--3-3--|


Fig.7
|-0-0-0-0-0--0-0--0-0--2-2-2-2-2--2-2--2-2-2--|
|-2-2-2-2-2--2-2--2-2--3-3-3-3-3--3-3--3-3-3--|
|-2-2-2-2-2--2-2--2-2--2-2-2-2-2--2-2--2-2-2--|
|-2-2-2-2-2--2-2--2-2--0-0-0-0-0--0-0--0-0-0--|
|-0-0-0-0-0--0-0--0-0--0-0-0-0-0--0-0--0-0-0--|
|---------------------------------------------|


Fig.8
|-0-0--0-3-3-3-3--3-3-3--3-3--3-3-3-3--3-3--|
|-0-0--0-3-3-3-3--3-3-3--3-3--3-3-3-3--3-3--|
|-x-x--x-0-0-0-0--0-0-0--0-0--0-0-0-0--0-0--|
|-2-2--2-0-0-0-0--0-0-x--x-x--x-x-x-x--x-x--|
|-2-2--2-x-x-x-x--x-x-3--3-3--3-3-3-3--3-3--|
|-0-0--0-3-3-3-3--3-3-----------------------|


Fig.9
|---------------|
|---------------|
|-3-3-3--2-0-2--|
|-3-3-3--2-0-2--|
|-1-1-1--0---0--|
|---------------|


Fig.10
|-3-3-3-3-3-3-3-3-3--3-3-3-3-3-3-3-3-3--3-3-3-3-3-3-3-3-3--3-3-3-3-3-3-3-3-3-|
|-3-3-3-3-3-3-3-3-3--3-3-3-3-3-3-3-3-3--0-0-0-0-0-0-0-0-0--0-0-0-0-0-0-0-0-0-|
|-0-0-0-0-0-0-0-0-0--0-0-0-0-0-0-0-0-0--0-0-0-0-0-0-0-0-0--0-0-0-0-0-0-0-0-0-|
|-0-0-0-0-0-0-0-0-0--0-0-0-0-0-0-0-0-0--x-x-x-x-x-x-x-x-x--x-x-x-x-x-x-x-x-x-|
|-x-x-x-x-x-x-x-x-x--x-x-x-x-x-x-x-x-x--3-3-3-3-3-3-3-3-3--3-3-3-3-3-3-3-3-3-|
|-3-3-3-3-3-3-3-3-3--3-3-3-3-3-3-3-3-3---------------------------------------|







Everything on the album is tuned down half a step, and on some songs the low 
string is dropped to Db. I forgot to specify the tuning for my posting of Denied, 
so if you need to know it's  Db Ab Db Gb Bb Eb.


Hope you liked the tab. If you have any comments e-mail me.
Comments