Our Lady Peace - Made To Heal Chords & Tabs

 

Made To Heal Chords & Tabs

Our Lady Peace Chords & Tabs

Version: 1 Type: Bass Tab 0 ratings
1 star 2 stars 3 stars 4 stars 5 stars
comments

Made To Heal Bass Tab

   
Tabbed By: Koolone
Band: Our Lady Peace
CD: Spiritual Machines
Song: Made To Heal
E-Mail: eretor@hotmail.com

This is a fairly easy and fun song to play. This tab
should be pretty close to being correct. If you find any
problems email me. Be sure to rate this tab!


Intro:
G|----------------------------------------------9-8-9-|
D|----------4/9-9-9--9\7-7-7--7/11-11-11-11\9-9-------|
A|-0/7-7-7--------------------------------------------|
E|----------------------------------------------------|

Verse 1:
G|--------9-8-9-------9-8-9-------9-8-9--------------9-8-9-|
D|-------9-----------9-----------9------------------9------|
A|---------------------------------------------------------|
E|-0-00--------7-77--------5-55---------9-99-9\7-7-7-------|
[ Tab from: http://www.guitartabs.cc/tabs/o/our_lady_peace/made_to_heal_btab.html ]
Verse 2:
G|----------------------------------------9-8-9-|
D|---------------------------------------9------|
A|----------------------------------------------|
E|-0-00--0/7-77--7\5-55--5/9-99-9\77-7-77-------|

Pre-Chorus:
G|------------------------------------------------|
D|----------------------------------------------6-|
A|------------------7------7----------------------|
E|-5-55-55-5-5-5-7-7-7-7-77-7-5-55-55-5-5-5-4-4---|

Chorus - play p.1 then p.2 then 
p.1 again then p.3:  

p.1
G|------------------|
D|------------------|
A|----------2-2-----|
E|-5-55-0-0-----2-2-|

p.2
G|------------------|
D|------------------|
A|----------2-4-----|
E|-5-55-0-0-----2-2-|

p.3
G|-----------|
D|-----------|
A|---------2-|
E|-5-5-0-0---|

Riff A (The part right b/4 it gets to the quiet verse)-
G|--------------------------------|
D|--------------------------------|
A|--------------------------------|
E|-5-55-5\2-22-2/4-44-4-5-55\2-22-|

ORDER:
Intro
Verse1
Pre-Chorus
Chorus
Verse2
Verse1
Pre-Chorus
Chorus
Riff A
Chorus (X2)



Comments