Our Lady Peace - Made Of Steel Chords & Tabs

 

Made Of Steel Chords & Tabs

Our Lady Peace Chords & Tabs

Version: 2 Type: Tab 0 ratings
1 star 2 stars 3 stars 4 stars 5 stars
comments

Made Of Steel Tab

Our Lady Peace - Made Of Steel (100% Correct Dudes!)

Artist's: Our Lady Peace
Song Title: Made Of Steel
Album: Gravity

Intro
e-------------------------------------------|
B-------------------------------------------|
G--7-12--11-12--9-11-12-16--11-12-9--7---7--|
D-------------------------------------------|
A-------------------------------------------|
E-------------------------------------------|

Verse x4
e-----------|----------|----------|----------|
B--3-3-3--3-|-3-3-3--3-|----------|-1-1-1--1-|
G--0-0-0-0-|-2-2-2--2-|----------|-0-0-0--0-|
D-----------|-0-0-0--0-|-22-2-2-|-2-2-2--2-|
A--3-3-3--3|-3-3-3-3-|-2-2-2-2-|-3-3-3--3-|
E-----------|----------|----------|----------|

Chorus
e------------|---------|-----------|---------|---------------|
B------------|---------|-----------|---------|---------------|
G----7-----5-|----7----|---7-----5-|----7----|-----7-------5-|
D-5--7--7--5-|-5--7-7-|-5-7-7-5-|-5-7-7-|-5---7---7---5-|
A-5--5--7--3-|-5-5-7-|-55-7-3-|-5-5-7-|-5---5---7---3-|
E-3-----5----|-3-----5-|-3----5----|-3-----5-|-3-------5-----|

e-----------------------|
B--------------------0--|
G---7---5---3---2-----0-| x2
D--7---5---3---3--3-----|
A-----------------------|
E-----------------------|

Intro
e-------------------------------------------|
B-------------------------------------------|
G--7-12--11-12--9-11-12-16--11-12-9--7---7--|
D-------------------------------------------|
A-------------------------------------------|
E-------------------------------------------|

Verse x4
e-----------|----------|----------|----------|
B--3-3-3--3-|-3-3-3--3-|----------|-1-1-1--1-|
G--0-0-0-0-|-2-2-2--2-|----------|-0-0-0--0-|
D-----------|-0-0-0--0-|-22-2-2-|-2-2-2--2-|
A--3-3-3--3|-3-3-3-3-|-2-2-2-2-|-3-3-3--3-|
E-----------|----------|----------|----------|
[ Tab from: http://www.guitartabs.cc/tabs/o/our_lady_peace/made_of_steel_tab_ver_2.html ]
Chorus
e------------|---------|-----------|---------|---------------|
B------------|---------|-----------|---------|---------------|
G----7-----5-|----7----|---7-----5-|----7----|-----7-------5-|
D-5--7--7--5-|-5--7-7-|-5-7-7-5-|-5-7-7-|-5---7---7---5-|
A-5--5--7--3-|-5-5-7-|-55-7-3-|-5-5-7-|-5---5---7---3-|
E-3-----5----|-3-----5-|-3----5----|-3-----5-|-3-------5-----|

e-----------------------|
B--------------------0--|
G---7---5---3---2-----0-| x2
D--7---5---3---3--3-----|
A-----------------------|
E-----------------------|

Intro
e-------------------------------------------|
B-------------------------------------------|
G--7-12--11-12--9-11-12-16--11-12-9--7---7--|
D-------------------------------------------|
A-------------------------------------------|
E-------------------------------------------|

Bridge x4                Play After Played The First Block
e---------|                   |------------------|
B---------|                   |------------------|
G---7---5-|                   |-7-12--11-12-9-7--| Repeat These 2 Blocks
D-5-7-7-5-|                   |------------------|         Twice!
A-5-5-7-3-|                   |------------------|
E-3---5---|                   |------------------|

e-----------------------|
B-----------------------|
G-77--55----------------| x4
D-77--55--5-------------|
A-55--33--5-------------|
E---------3-------------|

Solo
e-----------------------------------------------------|
B-----------------------------------------------------|
G-19-19-19-19-19-19-19-19--17-17-17-17--16-16-16-16---|
D-----------------------------------------------------|
A-----------------------------------------------------|
E-----------------------------------------------------|

------------------------|
------------------------|
--12---11--7--5-4-57---|
------------------------|
------------------------|
------------------------|

Chorus
e------------|---------|-----------|---------|---------------|
B------------|---------|-----------|---------|---------------|
G----7-----5-|----7----|---7-----5-|----7----|-----7-------5-|
D-5--7--7--5-|-5--7-7-|-5-7-7-5-|-5-7-7-|-5---7---7---5-|
A-5--5--7--3-|-5-5-7-|-55-7-3-|-5-5-7-|-5---5---7---3-|
E-3-----5----|-3-----5-|-3----5----|-3-----5-|-3-------5-----|

---------------------------|
---------------------------|
--7--5---------------------|
--7--5--5------------------|
--5--3--5------------------|
--------3------------------|
Comments