Our Lady Peace - Julia Chords & Tabs

 

Julia Chords & Tabs

Our Lady Peace Chords & Tabs

Version: 3 Type: Tab 0 ratings
1 star 2 stars 3 stars 4 stars 5 stars
comments

Julia Tab

   
                          Our Lady Peace
                              JULIA
                           From Naveed
                       Tabbed By Donkey Fly

This is my version of'Julia'

INTRO

E|-----------------------------------9----------------------------||
B|---------9----9----9--------9----9---9--------------------------||
G|-----------11---11------------11--------------------------------||
D|--9h11b---------------9h11b-------------------------------------||
A|----------------------------------------------------------------||
E|----------------------------------------------------------------||


E|----------------------------------------------------------------||
B|-------9----9----9-10-10-10-12~12--10---------------------------||
G|---------11---11------------------------------------------------||
D|-9h11b----------------------------------------------------------||
A|----------------------------------------------------------------||
E|----------------------------------------------------------------||

E|-----------------------------------9----------------------------||
B|---------9----9----9--------9----9---9--------------------------||
G|-----------11---11------------11--------------------------------||
D|--9h11b---------------9h11b-------------------------------------||
A|----------------------------------------------------------------||
E|----------------------------------------------------------------||


E|----------------------------------------------------------------||
B|-------9----9----9-10-10-10-12~12--10---5~----------------------||
G|---------11---11------------------------------------------------||
D|-9h11b----------------------------------------------------------||
A|----------------------------------------------------------------||
E|----------------------------------------------------------------||


Verse 1

Can you see her standing there
Well she's trying to find just anywhere
The flowers in her hair
But she doesn't know why, why



Pre-Chorus



    C#5   A5     E5    B5     C#5   A5     F#5
E|----------------------------------------------------------------||
B|----------------------------------------------------------------||
G|--6666--------------4444----6666--------------------------------||
D|--6666--7777--2222--4444----6666--7777--44444444-4-4-4----------||
A|--4444--7777--2222--2222----4444--7777--44444444-4-4-4----------||
E|--------5555--0000----------------5555--22222222-2-2-2----------||

C#5     A5    E5      B5
Offered is advise to you
     C#5      A5       F#5
You left but I don't blame you



Chorus

Guitar 1 x2
E|-------------------------------------------------------------------||
B|-5---5-7-----7---5---5-7-----7---5---5-7-----7---10-----12-----10\-||
G|---6-------6---6---6-------6---6---6-------6---6-------------------||
D|-------------------------------------------------------------------||
A|-------------------------------------------------------------------||
E|-------------------------------------------------------------------||

Guitar 2 x2
    A5  C A5 C  A5  C  Eb5  F5      
E|------------------------------------------------------------------||
B|------------------------------------------------------------------||
G|------------------------------------------------------------------||
D|-2225555225555225555-888-10101010---------------------------------||
A|-0003333003333003333-666--8-8-8-8---------------------------------||
E|------------------------------------------------------------------||
[ Tab from: http://www.guitartabs.cc/tabs/o/our_lady_peace/julia_tab_ver_3.html ]
A5   C   A5   C     A5    C
And she's only yours tonight,
        Eb5    F5
Oh she never cries.
A5   C   A5   C     A5    C
But I know there's pain inside,
              Eb5  F5
There's Julia.

INTRO X1

Verse 2

(This Is The Fill In Verse 2)
E|---9-12----------|
B|-9----9----------|
G|-----------------|
D|-----------------|
A|-----------------|
E|-----------------|

Drowning in her own visions         (With the Fill Once)
She's begging the past to stay behind
A black cat in the night
And there's a black cat in that sky, sky


Pre-chorus

C#5     A5    E5      B5
Offered is advise to you
     C#5      A5       F#5
You left but I don't blame you


Chorus (TWICE)

Interlude
      B5     A5        B5        A5       B5      A5      B5
E|----------------------------------------------------------------||
B|----------------------------------------------------------------||
G|-44444444----------44444444----------44444444----------44444444-||
D|-44444444-77777777-44444444-77777777-44444444-77777777-44444444-||
A|-22222222-77777777-22222222-77777777-22222222-77777777-22222222-||
E|----------55555555----------55555555----------55555555----------||

B5                    A5               B5
We're digging, we're digging, up the past
             A5                    B5
Crossing, crossing, crossed that line
              A5             B5
To burry, to burry, to burry it

One last time

Solo (twice)

E|-----------------------------------0---------0---------0---------0---||
B|-------------------------------------0---------0---------0---------0-||
G|-7---6-4-6---4-6---4-6---4-6~\---------------------------------------||
D|---------------------------------------------------------------------||
A|-------------------------------5b--------4b--------5b--------4b------||
E|---------------------------------------------------------------------||


Pre-chorus
    C#5   A5     E5    B5     C#5   A5     F#5
E|----------------------------------------------------------------||
B|----------------------------------------------------------------||
G|--6666--------------4444----6666--------------------------------||
D|--6666--7777--2222--4444----6666--7777--44444444----------------||
A|--4444--7777--2222--2222----4444--7777--44444444----------------||
E|--------5555--0000----------------5555--22222222----------------||

     C#5   A5     E5    B5     C#5   A5     F#5
E|----------------------------------------------------------------||
B|----------------------------------------------------------------||
G|--6666--------------4444----6666--------------------------------||
D|--6666--7777--2222--4444----6666--7777--44444444-4-4-4----------||
A|--4444--7777--2222--2222----4444--7777--44444444-4-4-4----------||
E|--------5555--0000----------------5555--22222222-2-2-2----------||

 C#5      A5    E5      B5
And offered is advice to you
   C#5      A5      F#5
And all you do was fake it
       C#5          A5     E5        B5
Oh, I know there's pain inside that truth
   C#5         A5      F#5
But you just gotta shake it


[Chorus]- (5 and a half times)

End

E|--------------2--|
B|--------------2--|
G|--2--2--4--4--3--|
D|--2--2--4--4--4--|
A|--0--0--2--2--4--|
E|--------------2--|


All Quiries And Questions Goto Thedonkeyfly@hotmail.com

Thanks
Comments