Our Lady Peace - Innocent Chords & Tabs

 

Innocent Chords & Tabs

Our Lady Peace Chords & Tabs

Version: 5 Type: Tab 0 ratings
1 star 2 stars 3 stars 4 stars 5 stars
comments

Innocent Tab

Extreme Rock Tabs!

Artist: Our Lady Peace
Album: Gravity
Song: Innocent

If You Would Like The Drum Tabs For This Song E-mail Me At sharkie51090@hotmail.com

Intro/Verse
e----------------------------------------------------------------------------|
B---------------------------------------------------------------------------|
G--66-66-66-66--1313-1313-1313-1315--1111-1111-1111-1111-1515-1515-1515-1513-|
D----------------------------------------------------------------------------|
A--44-44-44-44--1111-1111-1111-1113---99---99---99---99--1313-1313-1313-1311-|
E----------------------------------------------------------------------------|

----------------------------------------------------------------------------|
----------------------------------------------------------------------------|
--66-66-66-66--1313-1313-1313-1315--1111-1111-1111-1111-1515-1515-1515-1513-|
----------------------------------------------------------------------------|
--44-44-44-44--1111-1111-1111-1113---99---99---99---99--1313-1313-1313-1311-|
----------------------------------------------------------------------------|

Pre-Chorus
e----------------------------------------------------------------------|
B----------------------------------------------------------------------|
G---66-66-66-66--1313-1313-1313-1313--66-66-66-66--1515-1515-1515-1513-|
D----------------------------------------------------------------------|
A---44-44-44-44--1111-1111-1111-1111--44-44-44-44--1313-1313-1313-1313-|
E----------------------------------------------------------------------|

Chorus
e---------------------------------------|
B---------------------------------------|
G-66-66-6-6-----------------------------|
D-66-66-6-6-66-66-6-6-44-44-4-4-8-6-4-|
A-44-44-4-4-66-66-6-6-44-44-4-4-8--6-4-|
E-----------44-44-4-4-22-22-2-2-6--4-2-|

---------------------------------------|
---------------------------------------|
-66-66-6-6-----------------------------|
-66-66-6-6-66-66-6-6-44-44-4-4-8-6-4-|
-44-44-4-4-66-66-6-6-44-44-4-4-8--6-4-|
-----------44-44-4-4-22-22-2-2-6--4-2-|

Verse
e--------------------------------------------|
B--------------------------------------------|
G-66-66--------------------------------------|
D-66-66------66-66------44-44------8---6---4-|
A-44-44------66-66------44-44-----8---6---4-|
E------------44-44------22-22------6---4---2-|

--------------------------------------------|
--------------------------------------------|
-66-66--------------------------------------|
-66-66------66-66------44-44------8---6---4-|
-44-44------66-66------44-44------8---6---4-|
------------44-44------22-22------6---4---2-|
[ Tab from: http://www.guitartabs.cc/tabs/o/our_lady_peace/innocent_tab_ver_5.html ]
Pre Chorus
e--------------------------------------------|
B--------------------------------------------|
G-66-66--6-6---------------------------------|
D-66-66--6-6-66-66--6-6-44-44--4-4---8--6--4-|
A-44-44--4-4-66-66--6-6-44-44--4-4---8--6--4-|
E------------44-44--4-4-22-22--2-2---6--4--2-|

Chorus
e--------------------------------------------|
B--------------------------------------------|
G-66-66--6-6---------------------------------|
D-66-66--6-6-66-66--6-6-44-44--4-4---8--6--4-|
A-44-44--4-4-66-66--6-6-44-44--4-4---8--6--4-|
E------------44-44--4-4-22-22--2-2---6--4--2-|

--------------------------------------------|
--------------------------------------------|
-66-66--6-6---------------------------------|
-66-66--6-6-66-66--6-6-44-44--4-4---8--6--4-|
-44-44--4-4-66-66--6-6-44-44--4-4---8--6--4-|
------------44-44--4-4-22-22--2-2---6--4--2-|

Bridge (Each Bar Count To 8 And You're here It Change!)
e-------------------------------------|
B-------------------------------------|
G-------------------------------------|
D-66666666-88888888-66666666-10-8-6-|
A-66666666-88888888-66666666-10-8-4-|
E-44444444-66666666-44444444-8---6-4-|

-------------------------------------|
-------------------------------------|
-------------------------------------|
-66666666-88888888-66666666-10-8-6-|
-66666666-88888888-66666666-10-8-4-|
-44444444-66666666-44444444-8---6-4-|

--------------------------------------------|
--------------------------------------------|
-66-66--------------------------------------|
-66-66------66-66------44-44------8---6---4-|
-44-44------66-66------44-44------8---6---4-|
------------44-44------22-22------6---4---2-|

--------------------------------------------|
--------------------------------------------|
-66-66--6-6---------------------------------|
-66-66--6-6-66-66--6-6-44-44--4-4---8--6--4-|
-44-44--4-4-66-66--6-6-44-44--4-4---8--6--4-|(Let Ring)
------------44-44--4-4-22-22--2-2---6--4--2-|

Chorus
e-------------------------------------|
B-------------------------------------|
G-------------------------------------|
D-66666666-88888888-66666666-10-8-6-|
A-66666666-88888888-66666666-10-8-4-|
E-44444444-66666666-44444444-8---6-4-|

-------------------------------------|
-------------------------------------|
-------------------------------------|
-66666666-88888888-66666666-10-8-6-|
-66666666-88888888-66666666-10-8-4-|
-44444444-66666666-44444444-8---6-4-|

-------------------------------------|
-------------------------------------|
-------------------------------------|
-66666666-88888888-66666666-10-8-6-|
-66666666-88888888-66666666-10-8-4-|
-44444444-66666666-44444444-8---6-4-|

--------------------------------------------|
--------------------------------------------|
-66-66--------------------------------------|
-66-66------66-66------44-44------8---6---4-|
-44-44------66-66------44-44------8---6---4-|
------------44-44------22-22------6---4---2-|

Rock On Dudes Coz We Are All Innocent!
Comments