Our Lady Peace - Innocent Chords & Tabs

 

Innocent Chords & Tabs

Our Lady Peace Chords & Tabs

Version: 3 Type: Tab 0 ratings
1 star 2 stars 3 stars 4 stars 5 stars
comments

Innocent Tab

Our Lady Peace - Innocent.tab
Tabbed by Matt Sparrow Edmonton, Alberta, Canada

This selection was tabbed by me and is not under copyright by the original artist. 


This one's pretty easy. 

Tuning: standard 


[ Tab from: http://www.guitartabs.cc/tabs/o/our_lady_peace/innocent_tab_ver_3.html ]
Guitar 1  
E|----------------------------------------------------------
B|----------------------------------------------------------
G|---6-6--6666---8-8--8888-/-6-6--6666-/-10-10-10-1010-/8888
D|---6-6--6666-/-6-6--6666-/-4-4--4444-/-8--8--8--8-8--/6666
A|---4-4--4444-/-6-6--6666-/-4-4--4444-/-8--8--8--8-8--/6666
E|----------------------------------------------------------



Guitar 2  
E|-----------------------------------------------------------
B|-----------------------------------------------------------
G|---6-6--6666-/---------------------------------------------
D|---6-6--6666-/-6-6--6666-/-4-4--4444-/-8-8-8-88-/6666------
A|---4-4--4444-/-6-6--6666-/-4-4--4444-/-8-8-8-88-/6666------
E|---------------4-4--4444-/-2-2--2222-/-6-6-6-66-/4444------

Comments