Our Lady Peace - Innocent Chords & Tabs

 

Innocent Chords & Tabs

Our Lady Peace Chords & Tabs

Version: 2 Type: Tab 1 rating
1 star 2 stars 3 stars 4 stars 5 stars
comments

Innocent Tab

Album: Gravity
Song: Innocent
Band: Our Lady Peace
Tabbed By: David Rojas

Tunning: all strings down 1 & a 1/2

Key:
T=10th fret
E=11th fret
W=12th fret
R=13th fret
F=14th fret
/=slide up
\=slide down

Intro:
e-----------------------------------------------------------------------|
B------------------T-W--W--WW-WW-W/F\T--TT-TT-TTT-T-F--FF--FF-FFF-WW-W--|
G-9--99--99-999-9--9-E--E--EE-EE-E/R\9--99-99-999-9-R--RR--RR-RRR-EE-E--| 2x
D-9--99--99-999-9--7-9--9--99-99-9/E\7--77-77-777-7-E--EE--EE-EEE-99-9--|
A-7--77--77-777-7----9--9--99-99-9-E-7--77-77-777-7-E--EE--EE-EEE-99-9--|
E-0--00--00-000-0-------------------------------------------------------|

Play this at end of the intro on every 2nd time only
e------------------------------------------------------------------|
B-T--TT-TT-TTT-T-W--WW-WW-WWW-W-T--TT-TT-TTT-T-/-F--FF--FF-FFF-WWW-|
G-9--99-99-999-9-E--EE-EE-EEE-E-9--99-99-999-9-/-R--RR--RR-RRR-EEE-|
D-7--77-77-777-7-9--99-99-999-9-7--77-77-777-7-/-E--EE--EE-EEE-999-|
A-7--77-77-777-7-9--99-99-999-9-7--77-77-777-7-/-E--EE--EE-EEE-999-|
E------------------------------------------------------------------|
[ Tab from: http://www.guitartabs.cc/tabs/o/our_lady_peace/innocent_tab_ver_2.html ]
Chorus:
e----------------------------------------------------|
B----------------------------------------------------|
G--------------4-4-44-------2-2-22-------6--6-\-4--4-| throughout the 
D-2-2-22-------4-4-44-------2-2-22-------4--4-\-4--4-|
A-2-2-22-------2-2-22-------0-0-00-------4--4-\-2--2-|
E-0-0-00---------------------------------------------|

Play this at end of the chorus on every 2nd time only
e------------------------------------------------|
B------------------------------------------------|
G-2-2-22--22--4-4-44--44--2-2-22--22-6--6-\-4--4-|
D-2-2-22--22--4-4-44--44--2-2-22--22-6--6-\-4--4-|
A-0-0-00--00--2-2-22--22--0-0-00--00-4--4-\-2--2-|
E------------------------------------------------|

Verse:
e----------------------------------------------------|
B----------------------------------------------------|
G--------------4-4-44--44---2-2-22--22---6--6-\-4--4-| Throughout the rest of the song
D-2-2-22--22---4-4-44--44---2-2-22--22---4--4-\-4--4-|
A-2-2-22--22---2-2-22--22---0-0-00--00---4--4-\-2--2-|
E-0-0-00--00-----------------------------------------|

Play this at end of the verse on every 2nd time only
e----------------------------------------------------|
B----------------------------------------------------|
G--------------4-4-44--44---2-2-22--22---6--6-\-4--4-|
D-2-2-22--22---4-4-44--44---2-2-22--22---4--4-\-4--4-|
A-2-2-22--22---2-2-22--22---0-0-00--00---4--4-\-2--2-|
E-0-0-00--00-----------------------------------------|

If there's anything wrong or missing then e-mail me @ kahunaka@hotmail.com. Thx!
Comments