Our Lady Peace - In Repair Chords & Tabs

 

In Repair Chords & Tabs

Our Lady Peace Chords & Tabs

Version: 1 Type: Chords 0 ratings
1 star 2 stars 3 stars 4 stars 5 stars
comments

In Repair Chords

   
##################################################################################
# This file is the author's own work and represents their interpretation of the  #
# song. You may only use this file for private study, scholarship, or research.  #
##################################################################################

Song: In Repair 
Artist: Our Lady Peace
Tabbed by: Chris Bromley aka stonecold719


Alright I finally got the whole song

Here are the chords:

  Em  G* D* Am  C*)( E*  G* B  A  C* D*
e-0---3--2--0---0-)(-0---0--0--0--0--0
b-0---3--3--1---1-)(-0---0--0--0--0--0
g-0---0--2--2---0-)(-9---0--0--0--5--7
d-2---0--0--2---2-)(-9---5--9--5--5--7
a-2---2--0--0---3-)(-7---5--9--7--3--5
e-0---3--x--0---0-)(-x---3--7--7--x--x

*means there is a note for it at the end. READ THEM FIRST!


CHORUS


INTERLUDE:

there is no guitar to the first part when he's saying "Take this time, to figure it out..."

the next part where there is no singing is the same as the chorus


NOTES:
some of the chords are power chords, some are just basic chords. all of the power chords are
played in the verses and the basic chords are played in the chorus and interlude. I put brackets
to seperate the chords so it shouldn't be that hard. If you have any questions or comments, don't
hesitate to email me. Other than that, enjoy!


**********************************************************************************************************

*********************************************************************************************************

[ Tab from: http://www.guitartabs.cc/tabs/o/our_lady_peace/in_repair_crd.html ]
Song: In Repair (chorus)
Artist: Our Lady Peace
Tabbed by: Chris Bromley aka stonecold719


I have spent some time on this and this is pretty much exact.

it's just your basic chords


  Em  G  D  Am  C
e-0---3--2--0---0
b-0---3--3--1---1
g-0---0--2--2---0
d-2---0--0--2---2
a-2---2--0--0---3
e-0---3--x--0---0


you'll notice that at the end of the A minor, right before the E minor,
it goes it a higher pitch. thats the C. The rest of the song is based 
around this and I'll keep trying to figure this one out. So, next up, 
the rest of the song!


**************************************************************************************************************

**************************************************************************************************************


Song: Is Anybody Home?
Band: Our Lady Peace
Transcribed: Almost Hip 


This song is off of the album "Happiness is not a Fish that You Can
Catch".  I'm suprized to not see many transcriptions littering the net. As
usual, tune down a half-step to compensate for Raine's voice.


Intro (with vocals): F#5  A5  E5  A5


This is the chourus:

               any..home     any..wasted    tears of..   Loneliness...
Eb--------9---(9)------------9----(9)------7----------------7------||
Bb-----10------------------9-------------7----------------7--------||
Gb---9------------------10-------------8---------------9-----------||
Db-----------------------------------------------------------------||
Ab-----------------------------------------------------------------||
Eb-----------------------------------------------------------------||

Comments