Our Lady Peace - Hope Chords & Tabs

 

Hope Chords & Tabs

Our Lady Peace Chords & Tabs

Version: 1 Type: Bass Tab 0 ratings
1 star 2 stars 3 stars 4 stars 5 stars
comments

Hope Bass Tab

Hope
Our Lady Peace: Naveed
Tabbed by Scott Grant (kaputsk@geocities.com) 

Tune down half a step and drop to a Db! (Db Ab Db Gb)
You'll have to figure out the rhythm yourself, but it's not too hard..
It's really messy.. Sorry.. :)Main Riff
--------- 

Gb --------------------------------------------------
Db -------3-3-5-5-----------------3-3-5-5------------
Ab -----5-----------------------5--------------------
Db --5------------5---7-8-7--5------------5---0-3-8-- 

As the song goes on, the riff gets a little more complicated.. It's just
a few extra notes here and there, but it really sounds cool.. I didn't get
all the changes, so just improvise if you want.. 

at 0:29, 
Gb --------------------------------------------------
Db -------3-3-5-5-----------------3-3-5-5------------
Ab -----5-----------------------5--------------------
Db --5------------5---7-8-7--5------------5---3-0-3-- 
[ Tab from: http://www.guitartabs.cc/tabs/o/our_lady_peace/hope_btab.html ]
Gb ----------------------------------------------------
Db -------3-3-5-5---5--------------3-3-5-5---5---------
Ab -----5------------------------5---------------------
Db --5------------5----7-8-7--5------------5----0-3-8-- 

Gb --------------------------------------------------------
Db -------3-3-5-5---5--------------3-3-5-5---5-------------
Ab -----5------------------------5----------------1-3------
Db --5------------5----7-8-7--5------------5----0-----0-3--Chorus
------ 

Gb ---------------------------------------------------
Db ---------------------------------------------------
Ab ------------3-6--6-6-6-5-3--3-3-3-3-3-3-3----------
Db --5--5-5--5-------------------------------8-8-7-7-- 

my god he said
Db --5-5-5-3-3-3-0-0-0-0-0-0-0-0-0-0--2:43
---- 

Gb -------------------------------
Db --3----3-5-----3----3-5--------
Ab ----3------------3-------------
Db ------------5-----------5-3-5--3:06
---- 

Ab --------5-6-6-6-5-3-3-3-3-3-3--1-3-1-0--
Db --5-5-5---------------------------------Send comments, suggestions, flames, etc.. :)
Comments