Our Lady Peace - Everyones A Junkie Chords & Tabs

 

Everyones A Junkie Chords & Tabs

Our Lady Peace Chords & Tabs

Version: 1 Type: Tab 0 ratings
1 star 2 stars 3 stars 4 stars 5 stars
comments

Everyones A Junkie Tab

   
Author/Artist: Our Lady Peace  
Title: Everyone's A Junkie  
Album: Spiritual Machines  
Transcribed By: Michael Christie (olp_raine_@hotmail.com)  
 
This is pretty close. The second bar of the chorus is slightly off, but sounds  
alright. And with the verse solo bit, don't go any lower then the 8th fret of the a   
string, or any higher then the nineth fret of the d string. Just basically stay  
around the 8-10th frets of those strings. But hey, thats just my way!  
 
Verse:  
----------|----------|--------------|-----------------------------------------  
----------|----------|--------------|-----------------------------------------  
------10--|----------|---------10-9-|-----------------------------------------  
-10-8-----|---10-8-10|----10-8------|-----------------------------------------  
----------|----------|--------------|-----------------------------------------  
----------|----------|--------------|-----------------------------------------  
Solo around a little but over top of the bass in the verse, using these riffs as  
a basis.  
 
 
------------------------------------------------------------------------------  
------------------------------------------------------------------------------  
-5-5-5-5x-3-3-3-3x--2---------------------------------------------------------  
-5-5-5-5x-3-3-3-3x--2---------------------------------------------------------  
-3-3-3-3x-1-1-1-1x--0---------------------------------------------------------  
------------------------------------------------------------------------------  
 Where does it stop, Where does it end, Where do we go                                   
                          
                                                                                
Chorus:  
-----------|-------------------------------------------------------------------  
-----------|-------------------------------------------------------------------  
--5-3-2-3--|-5-8--10-8-7-------------------------------------------------------  
--5-3-2-3--|-5-8--10-8-7-------------------------------------------------------  
--3-1-0-1--|-3-6--8--6-5-------------------------------------------------------  
-----------|-------------------------------------------------------------------  
 Lookin For that sun, Lookin for that lie, Lonely, the only one who feels this way is    
 
------------------------------------------------------------------------------  
------------------------------------------------------------------------------  
---8--------------------------------------------------------------------------  
---8--------------------------------------------------------------------------  
---6--------------------------------------------------------------------------  
------------------------------------------------------------------------------  
The part where Raine is singing "Big green monkey, Everyone's a Junkie" over and over..  
Let the feedback build on this note (a wah-wah pedal helps), and use the volume  
control to create feedback swells.  
 
------------------------------------------------------------------------------  
------------------------------------------------------------------------------  
----8-8-8-8-8-8-8-8-8-8-8-8---------------------------------------------------  
----8-8-8-8-8-8-8-8-8-8-8-8---------------------------------------------------  
----6-6-6-6-6-6-6-6-6-6-6-6---------------------------------------------------  
------------------------------------------------------------------------------
                                                                             
"And I'll Remember this someday"  
 
----------------------------------------------------------------  
----------------------------------------------------------------  
8---------------------------------------------------------------  
8---------------------------------------------------------------  
6---------------------------------------------------------------  
----------------------------------------------------------------  
      End on this note  
 
 
 
Lyrics:  
I'm not waiting for the answers  
On a Sunday afternoon  
I'm just too drunk to remember  
What I always slept through  
The drugs and fake admission  
Are helping me to hide  
(No clue what Raine says here!)  
That has kept me inside  
 
Where does it stop?  
Where does it end?  
Where do we go?  
Why am I always complaining?  
 
I can be good  
I can be bad  
I can't be alive  
But   
 
Life, Looking for that sun  
Looking for that lie  
Lonely,   
The only one who feels this way is    
                                                                   
Big green monkey  
Everyone's a junkie  
 
I'm not asking (??) to end this  
There are things that I don't know  
But I'm really not that different  
You just made me think so  
 
Where does it stop?  
Where does it end?  
Where do we go?  
Why am I always complaining?  
 
I can be good  
I can be bad  
I can't be alive  
But   
 
Life, Looking for that sun  
Looking for that lie  
Lonely,   
The only one who feels this way is    
 
Big green monkey, Everyone's A Junkie  
 
Life, Looking for that sun  
Looking for that lie  
Lonely,   
The only one who feels this way is    
I'll remember this someday  
 
Life, Looking for that sun  
Looking for that lie  
Lonely,   
The only one who feels this way is    
 
 
Questions, comments, etc. Send to me at olp_raine_@hotmail.com
[ Tab from: http://www.guitartabs.cc/tabs/o/our_lady_peace/everyones_a_junkie_tab.html ]
Comments