Our Lady Peace - Do You Like It Chords & Tabs

 

Do You Like It Chords & Tabs

Our Lady Peace Chords & Tabs

Version: 2 Type: Tab 0 ratings
1 star 2 stars 3 stars 4 stars 5 stars
comments

Do You Like It Tab

   
Our Lady Peace
Do You Like It
Gravity

tabbed by Colin Edwards


Drop D
[ Tab from: http://www.guitartabs.cc/tabs/o/our_lady_peace/do_you_like_it_tab_ver_2.html ]
intro/verse
---------------------------
---------------------------
-----------------3-----3---
-----8-----8---------------
---6-----8-----3-----1-----
-6-----8-----3-----1-------


pre-chorus
------------
------------
------------
-6--8--3--1-
-6--8--3--1-
-6--8--3--1-


chorus
-------------
-------------
-6-----------
-6--6--3--1--
-4--6--3--1--
----6--3--1--
Comments