Our Lady Peace - Carnival Chords & Tabs

 

Carnival Chords & Tabs

Our Lady Peace Chords & Tabs

Version: 2 Type: Tab 0 ratings
1 star 2 stars 3 stars 4 stars 5 stars
comments

Carnival Tab

Song: "Carnival" by "Our Lady Peace"
Tuning - Down 1/2 Step

[Intro] - 1x
E|-0-----------2-----------0----------------------|
B|-0-----------2-----------0----------------------|
G|-2-----------2-----------1----------------------|  3x
D|-2-----------4-----------2----------------------| Then
A|-0-----------4-----------2----------------------|
E|-------------2-----------0----------------------|

E|-0-----------2-----------|
B|-0-----------2-----------|
G|-2-----------2-----------|
D|-2-----------4-----------|
A|-0-----------4-----------|
E|-------------2-----------|

[Bridge] - 1x
E|-------------------------------------------------------------------|
B|-16-----16-----16--17-----------19--16-----16-----16--17-----------|
G|-----------------------18---------------------------------16-------|
D|-------------------------------------------------------------------|
A|-------------------------------------------------------------------|
E|-------------------------------------------------------------------|

E|-------------------------------------------------------------------|
B|-16-----16-----16--17-----------19--16-----16-----16--17--19-------|
G|-----------------------18------------------------------------------|
D|-------------------------------------------------------------------|
A|-------------------------------------------------------------------|
E|-------------------------------------------------------------------|

[Verse] - 1x
E|-0-----0-----2-----2-----0-----0-----0-----0-----|
B|-0-----0-----2-----2-----0-----0-----0-----0-----|
G|-2-----2-----2-----2-----1-----1-----1-----1-----|  3x
D|-2-----2-----4-----4-----2-----2-----2-----2-----| Then
A|-0-----0-----4-----4-----2-----2-----2-----2-----|
E|-------------2-----2-----0-----0-----0-----0-----|

E|-0-----0-----2-----------|
B|-0-----0-----2-----------|
G|-2-----2-----2-----------|
D|-2-----2-----4-----------|
A|-0-----0-----4-----------|
E|-------------2-----------|
[ Tab from: http://www.guitartabs.cc/tabs/o/our_lady_peace/carnival_tab_ver_2.html ]
[Chorus] - 1x
E|-------------------------------------------0---0-0-0-|
B|-------------------------------------------0---0-0-0-|
G|-4-4-4-4-4-6---x---------------------------1---1-1-1-|
D|-4-4-4-4-4-6---x-7---7-7-7-4---4--4-4--4-4-2---2-2-2-|
A|-2-2-2-2-2-4---x-7---7-7-7-4---4--4-4--4-4-2---2-2-2-|
E|---------------x-5---5-5-5-2---2--2-2--2-2-0---0-0-0-|

E|------------------------------------------0---0-0--0-|
B|------------------------------------------0---0-0--0-|
G|-4-4-4-4-4-6---x--------------------------1---1-1--1-|
D|-4-4-4-4-4-6---x-7---7-7-7-4---4--4-4-7---2---2-2--2-|
A|-2-2-2-2-2-4---x-7---7-7-7-4---4--4-4-7---2---2-2--2-|
E|---------------x-5---5-5-5-2---2--2-2-5---0---0-0--0-|

E|------------------------------------------------------------|
B|------------------------------------------------------------|
G|-4-4-4-4-4-6---x-7-7-7-7---x-7-7-7-7---x-7/9-7-6-6---6-6--6-|
D|-4-4-4-4-4-6---x-7-7-7-7---x-7-7-7-7---x-7/9-7-6-6---6-6--6-|
A|-2-2-2-2-2-4---x-5-5-5-5---x-5-5-5-5---x-5/7-5-4-4---4-4--4-|
E|------------------------------------------------------------|

E|-----------------------------------------------------|
B|-------------------------------2---------------------|
G|-4-4-4-4-4-6---x---------------3---------------------|
D|-4-4-4-4-4-6---x-7---7-7-7-4---4---------------------|
A|-2-2-2-2-2-4---x-7---7-7-7-4-------------------------|
E|---------------x-5---5-5-5-2-------------------------|

[Bridge] - 1x
[Verse] - 1x
[Chorus] - 1x

[Interlude] - 1x
E|-----------------------------------------------------------------|
B|-9-------9-------9-------9---------------------------------------|  3x
G|-----7-------7-------7-------7---6-------6-------6-------6-------| Then
D|-------------------------------------6-------6-------6-------6---|
A|-----------------------------------------------------------------|
E|-----------------------------------------------------------------|

E|---------------------------------------------|
B|-9-------9-------9-------9-------------------|
G|-----7-------7-------7-------7---6-----------|
D|---------------------------------------------|
A|---------------------------------------------|
E|---------------------------------------------|

[Chorus] - 2x
[Bridge] - 5x
Comments