Our Lady Peace - Bring Back The Sun Chords & Tabs

 

Bring Back The Sun Chords & Tabs

Our Lady Peace Chords & Tabs

Version: 3 Type: Tab 0 ratings
1 star 2 stars 3 stars 4 stars 5 stars
comments

Bring Back The Sun Tab

   
                              OUR LADY PEACE - BRING BACK THE SUN
                                          GRAVITY
TABBED BY DONKEY FLY

I FOUND OUT THAT THE OTHER VERSION WAS COPIED FROM A  FAN SITE AND IT WASNT QUITE
RIGHT OR SPECIFIC ENOUGH , SO I TABBED IT MY SELF


   Intro   - LOOK AT BOTTOM FOR A VARIATION OF INTRO AND VERSES
E|----------------------------------------------------------------||
B|----------------------------------------------------------------||
G|--------------------1-------------------------------------------||
D|-------0h4----------2-------0h4----------11---------------------||
A|---0h4------0-4-4-4-2---0h4------0-7-7-9-11---------------------||
E|------------2-2-2-2-0------------2-5-5-7--9---------------------||

Verses - With ALTERNATE Pickings , Improvisation Can be Used

E|-----------------------------------------------------------------||
B|-----------------------------------------------------------------||
G|--------------------1-------------------------8--A                 Ab              Gb                  E
E|------------------------------------------------------------------------||
B|------------------------------------------------------------------------||
G|-----------------------------------------------------1-1-1-1-1-1-1-1-1--||
D|-7-7-7-7-7-7-7-7-7-7-7-7-7-7-7-7-7-4-4-4-4-4-4-4-4-4-2-2-2-2-2-2-2-2-2--||
A|-7-7-7-7-7-7-7-7-7-7-7-7-7-7-7-7-7-4-4-4-4-4-4-4-4-4-2-2-2-2-2-2-2-2-2--||
E|-5-5-5-5-5-5-5-5-5-4-4-4-4-4-4-4-4-2-2-2-2-2-2-2-2-2-0-0-0-0-0-0-0-0-0--||
 |
 |   Im not Sure About The  Alternate Picking Here
E|--------------------------------------------------------------------------||
B|-------0---------------0-------------------0----------------0-------------||
G|------6-6-------------6-6-----------------2-2--------------1-1------------||
D|-----7---7-----------7---7---------------4---4------------2---2-----------||
A|----7-----7---------7-----7-------------4-----4----------2-----2----------||
E|---5-------5-------4-------4-----------2-------2--------0-------0---------||


Solo
[ Tab from: http://www.guitartabs.cc/tabs/o/our_lady_peace/bring_back_the_sun_tab_ver_3.html ]
E|-----------------------------------------------------------------------------------||
B|----------------------------------6---6---6--8--6--4--4-4--2-2--1-1--1--2--1-------||
G|-1--1\\5--5-5--5-5--6-6-5-5-3-3--3---3---3------------------------------------3--2-||
D|-----------------------------------------------------------------------------------||
A|-----------------------------------------------------------------------------------||
E|-----------------------------------------------------------------------------------||

E|-----------------------------------------------------------------------------------------------------||
B|---------------------------------------9---9---9---11-11--9-9-8-8--8-9-8-8--6-6--4-4--2-2--1-1-3-1-0-||
G|-0--1--3---0--1--3---0--1--3--5--3---5---5---5-------------------------------------------------------||
D|-----------------------------------------------------------------------------------------------------||
A|-----------------------------------------------------------------------------------------------------||
E|-----------------------------------------------------------------------------------------------------||

Chorus/Interlude Solo

E|----------------------------------------------------------------||
B|-9h11-9h11-9h11-9h11-9h11-9h11-9h11-9h11-9h11-9h11-11-----------||
G|----------------------------------------------------------------||
D|----------------------------------------------------------------||
A|----------------------------------------------------------------||
E|----------------------------------------------------------------||


E|----------------------------------------------------------------||
B|-11h13-11h13-11h13-11h13-11-16-16-16-16-16-16-16-16-16-16-------||
G|----------------------------------------------------------------||
D|----------------------------------------------------------------||
A|----------------------------------------------------------------||
E|----------------------------------------------------------------||

THATS THE BASIC PARTS OF IT.....THERE IS LOADS OF ALTERNATE PICKING IN THIS SONG
IF I GET TIME I WILL TRY AND TAB ALL OF THEM AND THEN UPDATE THIS

Intro
Verse
Chorus
Intro
Verse
Chorus
Solo
Chorus/Interlude
Chorus/Interlude With Chorus/Interlude Solo
Intro (First Part of Riff With 'Little White House')

------------------------------------------------------------------------

INTRO AND VERSES VARIATION - I was just messing and tabbed this up , this sounds
right aswell as my original.

E|----------------------------------------------------------------||
B|-----------------0----------------------0-2---------------------||
G|-------------2-2----1---------------2-2-------------------------||
D|-------0h4-------------------0h4--------------------------------||
A|---0h4-------------------0h4------------------------------------||
E|-----------2----------------------2-----------------------------||
Comments