Our Lady Peace - Bring Back The Sun Chords & Tabs

 

Bring Back The Sun Chords & Tabs

Our Lady Peace Chords & Tabs

Version: 1 Type: Bass Tab 0 ratings
1 star 2 stars 3 stars 4 stars 5 stars
comments

Bring Back The Sun Bass Tab

Here I have a modified bass tab of Bring Back the Sun By Our Lady Peace.
By: Kevin Kung

Tune down 1/2 a step
The rhythm of the song varies a little.  I timed the notes to be in the right order.  In 
the bassist (Duncan Coutts) adds a few touchy licks to introduce new parts of the song.

Intro
F#|---------------------------------------------------------------------|
C#|---------------------------------------------------------------------|
G#|---------------------------------------------------------------------|
D#|--2~-----0~-----2~-----5~--------------------------------------------|

Verse
F#|---------------------------------------------------------------------|
C#|---------------------------------------------------------------------|
G#|---------------------------------------------------------------------|
D#|--2---0---4----2--0---0--0----2---0--0~----2---0--0~-----------------|
[ Tab from: http://www.guitartabs.cc/tabs/o/our_lady_peace/bring_back_the_sun_btab.html ]
Chorus
F#|---------------------------------------------------------------------|
C#|---------------------------------------------------------------------|
G#|---------------------------------------------------------------------|
D#|--5~----5~----5--5-5--4~----4--4--4----2~---2~---2--2--0~------------|

Repeat verse and chorus again

Guitar Solo
F#|---------------------------------------------------------------------|
C#|---------------------------------------------------------------------|
G#|---------------------------------------------------------------------|
D#|--5~----5~----5--5-5--4~----4--4--4----2~---2~---2--2--0~------------|

F#|----------------------------------------------------------------------|
C#|----------------------------------------------------------------------|
G#|----------------------------------------------------------------------|
D#|--5~---5~---5--5-5--4~---4--4--4----2~---2~--2--2--0~-/17-17-17-16-17-|

Outro
F#|---------------------------------------------------------------------|
C#|---------------------------------------------------------------------|
G#|---------------------------------------------------------------------|
D#|--5~----5~----5--5-5--4~----4--4--4----2~---2~---2--2--0~------------|

KevinKung
Comments