Our Lady Peace - Automatic Flowers Chords & Tabs

 

Automatic Flowers Chords & Tabs

Our Lady Peace Chords & Tabs

Version: 1 Type: Tab 1 rating
1 star 2 stars 3 stars 4 stars 5 stars
comments

Automatic Flowers Tab

   
##################################################################################
# This file is the author's own work and represents their interpretation of the  #
# song. You may only use this file for private study, scholarship, or research.  #
##################################################################################

Automatic Flowers - Our Lady Peace
Taken From - Clumsy
Transcribed by - galapogosvii@geocities.com
Home URL - http://www.geocities.com/Area51/Corridor/8188/
--------------------------------------------------------------
The First Part. there is no guitar.

And Sarah thinks, She's dies here once before,
She's Crazy...
A Pop-up book, of flowers from Gr.4, Are

Riff 1 (End of Verse):

  
e|----------------------------------|
B|----------------------------------|
G|----------------------------------|
D|----------------8-8-8-8-7-7-7-7---|
A|----------------8-8-8-8-7-7-7-7---|
E|----------------6-6-6-6-5-5-5-5---|
 |_______P.M.____|

Pre Chorus:

 
e|----------------------------------|
B|----------------------------------|
G|----------------------------------|
D|---5~----------7~-----------------|
A|---5~----------7~-----------------|
E|---3~---3------5~---5-------------|
  |      |
        Harm.    Harm.

Riff 2 (End of Pre Chorus):
        
e|----------------------------------|
B|----------------------------------|
G|----------------------------------|
D|------8-8-8-8--10-10-10-10--------|
A|------8-8-8-8--10-10-10-10--------|
E|------6-6-6-6---8--8--8--8--------|

Chorus : 
    Crying, Crying....
e|----------------------------------|
B|----------------------------------|
G|--7-7-7-7---------5-5-5-5---------|
D|--7-7-7-7-8-8-8-8-5-5-5-5-5-5-5-5-|
A|--5-5-5-5-8-8-8-8-3-3-3-3-5-5-5-5-|
E|----------6-6-6-6---------3-3-3-3-|

    2nd Verse (still no guitar):

Riff 1

Pre Chorus
Riff 2 

Chorus: (Crying, Crying...)
    

Solo:
e|--------------5p3-5-3-5-3---------------3p2-3-2-3-2--|
B|-----------------------------------------------------|
G|---5/7-7-7-7----------------4/5-5-5-5----------------|
D|---5/7-7-7-7----------------4/5-5-5-5----------------|
A|---3/5-5-5-5----------------2/3-3-3-3----------------|
E|-----------------------------------------------------|
[ Tab from: http://www.guitartabs.cc/tabs/o/our_lady_peace/automatic_flowers_tab.html ]
e|---------------------------------------------------------|
B|-13h15-15-15-15--15-13-15-15-15-15--15-13h15-15-15-15-15-|
G|---------------------------------------------------------|
D|---------------------------------------------------------|
A|---------------------------------------------------------|
E|---------------------------------------------------------|

e|----------13~-------------------------------------|
B|-13h15-15-------13h15-15-15-15--15-13-15-15-15-15-|
G|--------------------------------------------------|
D|--------------------------------------------------|
A|--------------------------------------------------|
E|--------------------------------------------------|


e|--15-13-15-13-17p15p13----|
B|-----------------------15-|
G|--------------------------|
D|--------------------------|
A|--------------------------|
E|--------------------------|

e|-----13-13-13-----13-13-13-----13-13-13-----13-13-13-|
B|-15~----------15~----------15~----------15~----------|
G|-----------------------------------------------------|
D|-----------------------------------------------------|
A|-----------------------------------------------------|
E|-----------------------------------------------------|


e|-----13-13-13-----13-13-13--15p13h15-17p15p13----13----|
B|-15~----------15~----------------------------h15----15~|
G|-------------------------------------------------------|
D|-------------------------------------------------------|
A|-------------------------------------------------------|
E|-------------------------------------------------------|


e|-13-------13-------13-------13------13-------13------|
B|----15-15----15~------15-15----15~-----15-15----15~--|
G|-----------------------------------------------------|
D|-----------------------------------------------------|
A|-----------------------------------------------------|
E|-----------------------------------------------------|

e|-13-------13--b15-b15-b15-b15-b15-b15-15b-15b-|
B|----15-15-------------------------------------|
G|----------------------------------------------|
D|----------------------------------------------|
A|----------------------------------------------|
E|----------------------------------------------|
       |_Gradually Bend up half a step_|

Pre Chorus
Riff 2

Chorus: (Crying, Crying...)

    Outro (Bits and peices of the solo being played):

 Last Chord:
e|--5--|
G|--7--|
B|--6--|
D|--7--|
A|--5--|
E|-----|

There you are. I hope you liked it.



-- 

GalapogosVII
E-Mail: 
   Primary -   galapogosvii@geocities.com
Secondary - galapogosvii@hotmail.com

(please do NOT use the secondary address, unless you were notified to do
so by me)

WWW:
 http://www.geocities.com/Area51/Corridor/8188/

  "Hokt un fonix reely werkt fer mee!!!"
Comments