Our Lady Peace - Angels Losing Sleep Chords & Tabs

 

Angels Losing Sleep Chords & Tabs

Our Lady Peace Chords & Tabs

Version: 1 Type: Tab 3 ratings
1 star 2 stars 3 stars 4 stars 5 stars
comments

Angels Losing Sleep Tab

   
Tabbed by: Dave
Email: Dc230559@muhlenberg.edu

I got an early copy of this before the album came out so there is no 
  guarentee that this will match up with the album version. Guitar 2's 
  parts were tough to hear in certain spots. Otherwise this should be a 
  fairly accurate tab.


Tune Guitars Down 1/2 Step


Intro/Verse Guitar 1

|------------------------------------------------------|
|------2------------2------------3------------3--------|
|----2---2---2----2---2---2----2---2---2----2---2---2--|
|----------2------------2------------2------------2----|
|--0------------0------------0------------0------------|
|------------------------------------------------------|

|------------------------------------------------------|
|------4------------4------------3------------3--------|
|----2---2---2----2---2---2----2---2---2----2---2---2--|
|----------2------------2------------2------------2----|
|--0------------0------------0------------0------------|
|------------------------------------------------------|


Verse Guitar 2
            
            1/4             1/4
|-----------------------------------|
|-----------------------------------|
|--2--2--x---------2--2--x----------|
|--2--2--x---------2--2--x----------|
|--0--0--x---------0--0--x----------| 
|-----------3b-p0-----------3b-p0---| 



Verse Cont. Guitar 1

   D                Em                      A           
|--0-----------------0-------------------|-----------|-----------|
|--3-----------------0-------------------|--2-2---2--|--3-3---3--|   
|--2-----------------0-------------------|--2-2---2--|--2-2---2--|   
|--0-----------------2-------------------|--2-2------|--2-2------|
|--------------------2-------------------|--0-0--0---|--0-0--0---|
|--------------------0-------------------|-----------|-----------|

   D                Em                      D
|--0-----------------0-------------------|--0--------------------|
|--3-----------------0-------------------|--3--------------------|
|--2-----------------0-------------------|--2--------------------|
|--0-----------------2-------------------|--0--------------------|
|--------------------2-------------------|-----------------------|
|--------------------0-------------------|-----------------------|

  
[ Tab from: http://www.guitartabs.cc/tabs/o/our_lady_peace/angels_losing_sleep_tab.html ]
Verse Cont. Guitar 2 
 
   D                 Em
|---------9--------10--------7---9---10--|
|------10-------10--------10-------------|
|----9--------9---------9------9---9-----|
|--0--------0---------0------------------|
|----------------------------------------|
|----------------------------------------|

   D                 Em                     
|---------9--------10--------7---9---10--|
|------10-------10--------10-------------|
|----9--------9---------9------9---9-----|
|--0--------0---------0------------------|
|----------------------------------------|
|----------------------------------------|

   D
|--------14----12----12h14----15----14----12--------|
|-----12----------------------------------------15--|
|--11-------11----11-------11----11----11----11-----|
|---------------------------------------------------|
|---------------------------------------------------|
|---------------------------------------------------|


Chorus 

Guitar 1
Em G D A x3

Guitar 2
|--15---15---14----------|
|----------------15--14--|
|------------------------|
|------------------------|
|------------------------|
|------------------------|

Guitar 1
C D A x2


Interlude

Guitar 1

|----------------------------------------------------------|
|--------3---3-5------3---5-6------3---5-3------3---5-3----|
|------2------------2------------2------------2---------2--|
|----------------------------------------------------------|
|--0-------------------------------------------------------|
|----------------1------------2-------------1--------------|

Solo

Guitar 1 
D Bm D D x1


Guitar 2

   D            Bm              D
|--2---3---s5----7---9---s10----9----12----s14----9----12----s14--|
|----3---3---------7---7----------10----10----------10----10------|
|-----------------------------------------------------------------|
|-----------------------------------------------------------------|
|-----------------------------------------------------------------|
|-----------------------------------------------------------------|


Just piece it all together, there are a few transitions out of the 2nd 
  Verse parts that I didn't feel like tabbign out, but you should be 
  able to figure it out just by listening. It's just variations of an A. 
Send Comments and corrections to DC230559@muhlenberg.edu



Comments