Otx - The Last One Standing Chords & Tabs

 

The Last One Standing Chords & Tabs

Otx Chords & Tabs

Version: 1 Type: Bass Tab 0 ratings
1 star 2 stars 3 stars 4 stars 5 stars
comments

The Last One Standing Bass Tab

   
Tabbed by: Quake
Email: Who cares

Tuning: standard


| /  slide up
| \  slide down
| h  hammer-on
| p  pull-off
| ~  vibrato
| +  harmonic
| x  Mute note

G|------------------------------------------------|
D|------------------------------------------------|
A|-------7---------8---------7---------8----------|
E|-6-5-5---5-5-6-6---6-6-5-5---5-5-6-6---6-6-5-5--|
[ Tab from: http://www.guitartabs.cc/tabs/o/otx/the_last_one_standing_btab.html ]
Keep playin this over and ovr many many times and then play

G|------------------------------------------------|
D|------------------------------------------------|
A|-------6---------7---------6---------7----------|
E|-4-3-3---3-3-4-4---4-4-3-3---3-3-4-4---4-4-3-3--|

OK play this many times also while the guitarist is playin his distortion part so play
it hard and make it sound sick like it is even though there isnt much to do
Comments