Ottmar Liebert - Surrender Love Chords & Tabs

 

Surrender Love Chords & Tabs

Ottmar Liebert Chords & Tabs

Version: 1 Type: Tab 0 ratings
1 star 2 stars 3 stars 4 stars 5 stars
comments

Surrender Love Tab

            #----------------------------------PLEASE NOTE------------------------------------------#
         #this guitar tab is the author's own work and represents their interpretation of the #
            # Song. You may only use this file for private study, scholarship, or research. #          
               #----------------------------------------------------------------------------------------#


Ottmar Liebert-" Ottmar Liebert "

I love it & hope you enjoy too...!
This is the first solo tab, on the net¡K!  


This is no joke friends...!


Here we go play slowly & with all of passion ways:

E|----5---7--8____12---|-5--7---8____13--|x2--3-5--6-5-3-1--|-----------------------------
B|--------------------------------------------------------------------------3--5--6--5--3--6--|--
G|--------------------------------------------------------------------------------------------------------
D|-------------------------------------------------------------------------------------------------------
A|-------------------------------------------------------------------------------------------------------
E|--------------------------------------------------------------------------------------------------------

E|---7--8---7-8-10--10-10-10___12--10--|--8--7--5--|--7--5--|-7--5--7/\/\/\/------
B|-------------------------------------------------------------------------------------------
G|-------------------------------------------------------------------------------------------
D|-------------------------------------------------------------------------------------------
A|-------------------------------------------------------------------------------------------
E|--------------------------------------------------------------------------------------------

E|---7--9---6--7--|---6--7--9--7--6--|---6--7--9--10--9--|---7---9---10--|-----------
B|-------------------------------------------------------------------------------------------
G|-------------------------------------------------------------------------------------------
D|-------------------------------------------------------------------------------------------
A|-------------------------------------------------------------------------------------------
E|-------------------------------------------------------------------------------------------

E|---7--9---6--7--|---6--7--9--7--6--|---6--7--9--10--9--|---55-----------------------
B|-------------------------------------------------------------------------------------------
G|-------------------------------------------------------------------------------------------
D|-------------------------------------------------------------------------------------------
A|-------------------------------------------------------------------------------------------
E|--------------------------------------------------------------------------------------------

E|---7--9---6--7--|---6--7--9--7--6--|---6--7--9--10--9--|-----------------------------
B|-------------------------------------------------------------------------------------------
G|-------------------------------------------------------------------------------------------
D|-------------------------------------------------------------------------------------------
A|-------------------------------------------------------------------------------------------
E|-------------------------------------------------------------------------------------------

E|----5---7--8____12---|-5--7---8____13--|x2----------------------------------------
B|-------------------------------------------------------------------------------------------
G|-------------------------------------------------------------------------------------------
D|-------------------------------------------------------------------------------------------
A|-------------------------------------------------------------------------------------------
E|-------------------------------------------------------------------------------------------

E|---7--5--3--2--0--|--0--2--3--7--2--|--0--2--7--3--2--|x2--10____12---12--10--8--7---
B|----------------------------------------------------------------------------------------------------
G|-----------------------------------------------------------------------------------------------------
D|---------------------------------------------------------------------------------------------------------
A|-------------------------------------------------------------------------------------------------------
E|------------------------------------------------------------------------------------------------------

E|---77777777--88888888--1010101010101010---1212121212121212--
B|-------------------------------------------------------------------------------------------
G|-------------------------------------------------------------------------------------------
D|-------------------------------------------------------------------------------------------
A|---------------------------------------------------------------------------------------------------
E|-----------------------------------------------------------------------------------------------

E|--10101010101010--88888888--77777777---101010101010101010------
B|-------------------------------------------------------------------------------------------
G|-------------------------------------------------------------------------------------------
D|-------------------------------------------------------------------------------------------
A|---------------------------------------------------------------------------------------------------
E|-----------------------------------------------------------------------------------------------
[ Tab from: http://www.guitartabs.cc/tabs/o/ottmar_liebert/surrender_love_tab.html ]
E|---8888888¡X777777777¡X555555555----------------------------------------------
B|-------------------------------------------------------------------------------------------
G|-------------------------------------------------------------------------------------------
D|-------------------------------------------------------------------------------------------
A|---------------------------------------------------------------------------------------------------
E|-----------------------------------------------------------------------------------------------


E|---5--8--7-|-------------------------------------------------------------------------------------
B|----------------8---6/\/\/\/\/\------------------------------------------------------------------------
G|-------------------------------------------------------------------------------------------
D|-------------------------------------------------------------------------------------------
A|---------------------------------------------------------------------------------------------------
E|-----------------------------------------------------------------------------------------------


E|---7--9---6--7--|---6--7--9--7--6--|---6--7--9--10--9--|---7---9---10--|--------------------
B|-------------------------------------------------------------------------------------------
G|-------------------------------------------------------------------------------------------
D|------------------------------------------------------------------------------------------------
A|---------------------------------------------------------------------------------------------------
E|-----------------------------------------------------------------------------------------------

E|---7--9---6--7--|---6--7--9--7--6--|---6--7--9--10--9--|---55-----|----------------------
B|-----------------------------------------------------------------------------------------------
G|----------------------------------------------------------------------------------------------
D|----------------------------------------------------------------------------------------------
A|---------------------------------------------------------------------------------------------------
E|-----------------------------------------------------------------------------------------------


E|---7--9---6--7--|---6--7--9--7--6--|---6--7--9--10--9--|-------------------------------------
B|-------------------------------------------------------------------------------------------------
G|--------------------------------------------------------------------------------------------------
D|----------------------------------------------------------------------------------------------------
A|---------------------------------------------------------------------------------------------------
E|---------------------------------------------------------------------------------------------------


E|----5---7--8_____12---|-5--7---8_____--13--|x2---------------------------------------------------
B|-------------------------------------------------------------------------------------------------------
G|--------------------------------------------------------------------------------------------------------
D|-------------------------------------------------------------------------------------------------------
A|-------------------------------------------------------------------------------------------------------
E|--------------------------------------------------------------------------------------------------------



E|----12-12-12--12_____10--1010--8--7-|---or--|-12-12-12--12_____10----1010-88--------
B|----------------------------------------------------------------------------------------------------12
G|--------------------------------------------------------------------------------------------------------
D|-------------------------------------------------------------------------------------------------------
A|-------------------------------------------------------------------------------------------------------
E|--------------------------------------------------------------------------------------------------------

At the end of the riffs, you will see these notes, you know I think it's an ability to play with them by the Musician and Also it depends on the rhythm, I have translated some of them to the tab you can see here..!

Main „»E|---5---7--8--10--12--13----------------------------------------------------

E|---5---7--8____12-1212-|--5---7--8____13-1313----------------------------------------------
B|--------------------------------------------------------------------------------------------------------
G|--------------------------------------------------------------------------------------------------------
D|-------------------------------------------------------------------------------------------------------
A|-------------------------------------------------------------------------------------------------------
E|--------------------------------------------------------------------------------------------------------

E|---5---7--8____13-1313--12--10-8--7/\/\/\--|--5---7--8____12-13-12-10-8-7--------------|
B|--------------------------------------------------------------------------------------------------------|
G|--------------------------------------------------------------------------------------------------------|
D|--------------------------------------------------------------------------------------------------------|
A|--------------------------------------------------------------------------------------------------------|
E|--------------------------------------------------------------------------------------------------------|

hehey...! They like it...! I told you this is no joke friends...!
 Aref R.Bakhtyari (justjustify85@yahoo.com)
Comments