Ottmar Liebert - Samba Pa Ti Chords & Tabs

 

Samba Pa Ti Chords & Tabs

Ottmar Liebert Chords & Tabs

Version: 1 Type: Tab 0 ratings
1 star 2 stars 3 stars 4 stars 5 stars
comments

Samba Pa Ti Tab

===================================================
*    TABLATURAS Y ACORDES DE MÚSICA EN ESPAÑOL    *
+----------------- www.atame.org -----------------+
| Santana & ottmar liebert                                         |
| SAMBA PA TI                                     |
| ---???---                                       |
| ---???--- ()                                    |
============================================TAB====
Héctor "MuRdOc" Ramírez Guzmán
hectorprs@hotmail.com
www.plasmandosentimientos.tk

this is the whole song "samba pati"


Intro: acústico

e*-----------3-----2h3p2--------------------3-----2h3p2--5--------|
B*-------3-5---3---------3-5------------3-5---3------------8-7-5--|
G*-2-4-5--------------------------2-4-5---------------------------|
D*----------------------------------------------------------------|
A*----------------------------------------------------------------|
E*----------------------------------------------------------------|

---7-5------5--7-8s10-10-10-10-10---7-----------------------------|
-------8-5----------------------------10-8--8-10p8----------------|
---------------------------------------------------9p7------<7>---|
---------------------------------------------------------<7>------|
------------------------------------------------------------------|
------------------------------------------------------------------|
                                               Armónicos *******

--------------------------------------7-5-5---------5----7----10--|
--5p3-------3h5---------0-3-3h5-3-----------8-8-5-8---------------|
------4-5-4-----2-------------------------------------------------|
------------------------------------------------------------------|
------------------------------------------------------------------|
------------------------------------------------------------------|


Segunda parte: acústico
--------------3-----2h3p2-----------------|
----------3-5---3-----------3-3h5---------|
----2-4-5---------------------------------|
------------------------------------------|
------------------------------------------|
------------------------------------------|

Eléctrico
e*-12b-----------------------------*
B*------15-12----------------------*
G*------------14br-14-12-----------*
D*-----------------------14--------*
A*---------------------------------*
E*---------------------------------*

Acústico
e*------------3--------|
B*--------3-5---5------|
G*--2-4-5--------------|
D*---------------------|
A*---------------------|
E*---------------------|

Eléctrico
e*---------------------|
B*---------------------|
G*-------12-12---------|
D*--/14----------------|
A*---------------------|
E*---------------------|

Acústico
e*--2h3p2----5------------|
B*-------------8-7-5------|
G*------------------------|
D*------------------------|
A*------------------------|
E*------------------------|

Eléctrico
e*--15p12----------------------------|
B*---------15-12---------------------|
G*---------------14br-14--12---------|
D*---------------------------14------|
A*-----------------------------------|
E*-----------------------------------|

Acústico
e*--7-5------5--7--8s10-10-10-10-10----7---------------------------|
B*------8-5------------------------------10-8--8-10p8--------------|
G*----------------------------------------------------9p7-----<7>--|
D*---------------------------------------------------------<7>-----|
A*-----------------------------------------------------------------|
E*-----------------------------------------------------------------|
                                                 Armónicos *******
Acústico
e*------------------------|
B*--5p3-------3h5---------|
G*------4-5-4-----2-------|
D*------------------------|
A*------------------------|
E*------------------------|

Eléctrico
e*----------------|
B*----------------|
G*----5-----------|
D*--7---7p5-7-----|
A*----------------|
E*----------------|

Acústico
e*-----------------7-5-5----------5----7-----10---------|
B*--0-3-3h5-3------------8-8-5-8------------------------|
G*------------------------------------------------------|
D*------------------------------------------------------|
A*------------------------------------------------------|
E*------------------------------------------------------|


Eléctrico
e*------------------------------------------------------------------------------|
B*-------------------------------------------12---------------------------------|
G*-------12-12----12-14s16----------12-12-12----14-12-12h14---------------------|
D*-12h14-------14-------------12-14-------------------------12h14-12h14--12-14--|
A*------------------------------------------------------------------------------|
E*------------------------------------------------------------------------------|

----------15-14----------15-14-15-14-15-14-15-14-15-14br-----------------------|
--15---15-------15----15---------------------------------15h17p15-15-12--------|
------------------------------------------------------------------------14br---|
-------------------------------------------------------------------------------|
-------------------------------------------------------------------------------|
-------------------------------------------------------------------------------|

----------------------------------------------------------------------|
--------------------------------------------------12------------------|
----12----12-14br-14-12----12-14s16------------14----14-12------------|
-------14---------------14---------------------------------14---------|
----------------------------------------------------------------------|
----------------------------------------------------------------------|

--15-14-15-14-15-14-15-14-15-14-15-14-15-17b-17b-17b-17b-17b-17b-17b-17br---|
----------------------------------------------------------------------------|
----------------------------------------------------------------------------|
----------------------------------------------------------------------------|
----------------------------------------------------------------------------|
----------------------------------------------------------------------------|

-15-12---------------------------------14-15-17-17-15-15-14-15-14----------|
-------15br-15-12-------------------17----------------------------15-15----|
------------------14br-12--------------------------------------------------|
--------------------------14-----------------------------------------------|
---------------------------------------------------------------------------|
---------------------------------------------------------------------------|

----12---------------------------------------------------------------------|
-15----15-12h15p12---------------------------------------12----------------|
-------------------12----12-14br-12h14p12----12-14-14-12----14-12----------|
----------------------14------------------14----------------------14-------|
---------------------------------------------------------------------------|
---------------------------------------------------------------------------|

-12---------------------12------12h14-12-14-12----------------------12----12--|
----15----12\-----12-15------------------------15-12-15-12\---12h15----15-----|
------------------------------------------------------------------------------|
------------------------------------------------------------------------------|
------------------------------------------------------------------------------|
------------------------------------------------------------------------------|
[ Tab from: http://www.guitartabs.cc/tabs/o/ottmar_liebert/samba_pa_ti_tab.html ]
---14h15--14h15---14-12----------------------------------------------------|
-------------------------15-12-15-12-15------12-15---------12---------12---|
---------------------------------------------------14b(16)----14b(16)------|
---------------------------------------------------------------------------|
---------------------------------------------------------------------------|
---------------------------------------------------------------------------|

-------------------------------------------*
---------12-12-12--13-13--15---------------*
-14b(16)-----------------------------------*
-------------------------------------------*
-------------------------------------------*
-------------------------------------------*


Acústico
e*---------7---------------------10-10s12-10----10-----------------------------|
B*-----8-8---10-8-10---------8-8-------------12----10-------10-12-12-10--------|
G*-7-9-------------------7-9-----------------------------12-------------12-12--|
D*-----------------------------------------------------------------------------|
A*-----------------------------------------------------------------------------|
E*-----------------------------------------------------------------------------|

                                                 rápido
                         *****************************************************
---------------------------------7-8-7---8-7---10-8-7----7--------------------|
-10-12-10-10----------------8-10-------8-----8--------10---10-----------------|
-------------7s9-9--------9-----------------------------------9-9-9--7--9-9-9-|
------------------------------------------------------------------------------|
------------------------------------------------------------------------------|
------------------------------------------------------------------------------|

-10///-----10-10s12-12-12-12s14-12-10h12p10-----10----12----10-10-------------|
--------12-----------------------------------------12----12-------13-12-10----|
---------------------------------------------------------------------------12-|
------------------------------------------------------------------------------|
------------------------------------------------------------------------------|
------------------------------------------------------------------------------|

------------------------------------------------------------------------------|
---12-12-10----10---------------------------12-13-15-13-12-15-13-12-----------|
------------12----7-------------------12-14-------------------------14-12-----|
--------------------------------12-14-----------------------------------------|
------------------------------------------------------------------------------|
------------------------------------------------------------------------------|
                          Rápido******************************************

-----------7---------7-7-7----7-7----7--10--8--7----------7-8-8-10-10s12-10----------10-|
------8-10---10-8-10-------10-----10-------------10-10-10-------------------13-12-13----|
--7-9-----------------------------------------------------------------------------------|
----------------------------------------------------------------------------------------|
----------------------------------------------------------------------------------------|
----------------------------------------------------------------------------------------|

--10--------------------------------------------------------7-8-7-----------------|
-----13-12-13-10--------10-12-12-10-13-13-12-----------8-10-------10-8-10---------|
---------------------12------------------------------9--------------------9-------|
----------------------------------------------------------------------------------|
----------------------------------------------------------------------------------|
----------------------------------------------------------------------------------|

---------------------------------------------------10-10s12-12-12-10----------------|
------------12-13-12----12-13-15-13-12----------12-------------------13-12-13-10----|
------12-14----------14-------------------------------------------------------------|
---14-------------------------------------------------------------------------------|
------------------------------------------------------------------------------------|
------------------------------------------------------------------------------------|
  ************************************Rápido

----------------------------10-------------------------------------------------------|
----10-12-12-10----------------13-12-12-10----10-------10-12-12-10----12/////////----|
-12-------------12-12----------------------12--------12------------12----------------|
-------------------------------------------------------------------------------------|
-------------------------------------------------------------------------------------|
-------------------------------------------------------------------------------------|

-10/////--12//////-12-12-12--10-s-19///////////////----------10////////---12////////----|
----------------------------------------------------------------------------------------|
----------------------------------------------------------------------------------------|
----------------------------------------------------------------------------------------|
----------------------------------------------------------------------------------------|
----------------------------------------------------------------------------------------|

-10//////--12//////--14//////--12///////--10///////--12///////--10////////--12////////--|
----------------------------------------------------------------------------------------|
----------------------------------------------------------------------------------------|
----------------------------------------------------------------------------------------|

-10////////--12////////--10////////-------------------------------*
------------------------------------------------------------------*
------------------------------------------------------------------*
------------------------------------------------------------------*
------------------------------------------------------------------*
------------------------------------------------------------------*


Eléctrico final
e*-19//////////--21/////////-21b(22)-21b(22)-21b(22)/////(22)r21/////--19///////---|
B*---------------------------------------------------------------------------------|
G*---------------------------------------------------------------------------------|

---17/////--15//////--12-12--------12---------12---------12-------------------------|
----------------------------15b(17)----15b(17)----15b(17)----15-12h15p12------------|
-------------------------------------------------------------------------14br-12----|
---------------------------------------------------------------------------------14-|

----------------------------------12-------------12-----12h14-12-14-12----------------|
---------12--------------------------15----12h15-----------------------15-12-15-12-15-|
---12h14----14-14-12-12-14------------------------------------------------------------|

---------12----12-----14h15-14h15p14-12-----------------------------------------------|
---12h15----15--------------------------15-12-15-12-15-----12-15------------------12--|
-----------------------------------------------------------------14b(16)r14-12-14-----|

------------------------------------------------------------------*
------------12------------12----------12----------12----------12--*
---14-12-14------14-12-14------14b(16)-----14b(16)-----14b(16)----*

===================================================
Colaboracion de Héctor "MuRdOc" Ramírez Guzmán
(hectorprs@hotmail.com)


 www.atame.org
Comments