Otherwise Eden - Emily Chords & Tabs

 

Emily Chords & Tabs

Otherwise Eden Chords & Tabs

Version: 1 Type: Tab 0 ratings
1 star 2 stars 3 stars 4 stars 5 stars
comments

Emily Tab

   
"Emily"
by Otherwise Eden


Otherwise Eden is the tentative name for the project me and a few friends have going.  We've
played a few venues, but there's nothing in Texarkana that's really worth playing in anyway.  The
style can only be described as electronica with an acoustic soul.  "Emily" is a two-minute
fingerpicking exercise, and was never really supposed to be a song at all, but my lead guitar said
it would make a breathtaking instrumental, so we've played around with it a little.  i can't tab
the electronics used, but i can give you the basic progression of the guitar.  If this interests
you in Otherwise Eden, feel free to write at winterheart1511@yahoo.com.

winterheart


Standard Tuning, capo on 2nd

riff 1
||-----------------2---------3p2-------------0h2--/7---5---3---5---2----
||-------3---3h5---------0-------3-------3---3----/8---7---5---7---3----
||-----0---0-----0-----0---0-------0---2---2-----0-------0---0----------
||---4---------------2---------------0---------------------------0------
||---5---------------3---------------x-------------------------------3--
||-----------------------------------2---------------0------------------
     E               D               G#              F#              D

||-----------------------0-------------------------------0h2p0-------5p2
||---3--/5-3---------------3-----------------------------------0---3----
||-0---0-----4p0-2--/4-------4---2---4-------0-------3/4---------2------
||-----------------0---2-------2---0---2---4---4---2-------------0------
||---------------0---------------3------/5-------2----------------------
||-----------------------------------------------0----------------------
                 B               D       E       F#              E
[ Tab from: http://www.guitartabs.cc/tabs/o/otherwise_eden/emily_tab.html ]
||---------------------------------3h5--/7---5---3---5---7---10p7-------
||-5p3---------0---3p0---------3/5------/8---7---5---7---8--------8/10--
||-----2-----0---2-----2p0---2---------0-------0---0--------------------
||-------0-2---------------0---------------------------0----------------
||---------3---------------x--------------------------------------------
||-------------------------2---------------0---------------8------------
           D               G#              F#              D                                    
                                                                   riff 2
||-------------7-----------------------------------2/3-5/7--------|-----
||-8---------5---5\3-0h3-0---0-1/3p1-----0-------5----------------|-(12)
||---9p7--(7)--------------0---------0h2-----3/4--------/9--------|-----
||-------------------------------0---------2----------------------|-----
||-------0---------------3---------------2------------------------|-----
||---------------------------------------0------------------------|--8--
         B               D       E       F#                          D

||----------------------------------------------0-----------2-------(12)
||-----------------(12)--------------(12)---------3---------3-----------
||-9-------------------9p7------------------0-------0-----0-------------
||---10p9------------------9p7----------0h2---4---------4---------------
||--------10p9-----------------10p9---0------------------------------0--
||-------------10p8-7---------------7-----------------0-----------------
                    C#                B               F#             B

||-----------------0-------------------------------------------5-----||
||-10------------0--(7)--------------------------------------3---3---||
||----12-9/11----------8------------(5)--0-----0---------3/4-------4-||
||------------12---------9-7-5p4-0h2---2---2/4---4-----2-------------||
||-----------------------------------3-------------5-2---------------||
||-------------------7-------------------------------0---------------||
                     C#              D       E       F#

Play through riff 1, then 2, then repeat 1 and end by slowing down.  Keep a steady rhythm
throughout.

Sunday, 1:13 am
Comments