Otherwise Eden - All Things Chords & Tabs

 

All Things Chords & Tabs

Otherwise Eden Chords & Tabs

Version: 1 Type: Tab 0 ratings
1 star 2 stars 3 stars 4 stars 5 stars
comments

All Things Tab

   
"All Things"
by Otherwise Eden


Another cut from our project demo.  This song incorporates an alternate tuning, and the somewhat
excessive use of harmonics.  But it's still one of my favorites.  It's pretty straightforward, so
i'll just tab it out and leave it at that; write any comments to winterheart1511@yahoo.com.

winterheart


Tuning - E,G,D,F#,A,f# -- capo on 3rd

E stays E
A 1 step down to G
D stays D
G 1/2 step down to F#
B 1 step down to A
E 1 step up to F#


riff 1.1
  guitar 1
||----------------------------------------------------------------------
||--------------------------(12)----------------------------------------
||-----(12)--(12)-----------(12)--(12)-----------(12)--(12)-------------
||----0-----0--------------0-----0--------------0-----0--------------0--
||--0--------------------0----------------------------------------------
||--------------------------------------2/3vv-0--------------------0----
| guitar 2
||----------------------------------------------------------------------
||----------------------------------------------------------------------
||----------------------------------------------------------------------
||----------------------------------------------------------------------
||----------------------------------------------------------------------
||----------------------------------------------------------------------

                      riff 1.2
  guitar 1
||-------(12)--------|--------------------------------------------------
||-(12)--(12)--------|--------------------------(12)--------------------
||-(12)--(12)--------|----(12)--(12)------------(12)--(12)----------(12)
||-0-----------------|---0-----0--------------0---------------------0---
||-------------------|-0--------------------0---------------------------
||---------------0h7-|--------------------------------------2/3vv-0-----
| guitar 2           |
||-------------------|------------(7)------------------(7)--------------
||-------------------|--------(5)------------------(5)------------------
||-------------------|----(7)------------------(7)-------------------(5)
||-------------------|--(12)-----------------(12)------------------(12)-
||-------------------|--------------------------------------------------
||-------------------|--------------------------------------------------

                                      riff 2
  guitar 1
||-----------------------(12)--------|-----3---------0-------3----------
||-----------------(12)--(12)--------|-------2-2/4-----4\2-----2-2/4----
||--(12)-----------(12)--(12)--------|-----0-----------------0----------
||-0--------------0-----0------------|---0---------0-------0---------0--
||-----------------------------------|-0-----------------0--------------
||--------------0----------------0h7-|----------------------------------
| guitar 2                           |
||------(7)----------------(7)-------|---------5---3-------------5---7--
||--(7)----------------(7)-----------|-----0---5---4---------0---5---7--
||-----------------(5)---------------|-----0-0---0---0-------0-0---0----
||---------------(12)----------------|---0-----------------0------------
||-----------------------------------|----------------------------------
||-----------------------------------|----------------------------------
[ Tab from: http://www.guitartabs.cc/tabs/o/otherwise_eden/all_things_tab.html ]
                                               dual lead riff
  guitar 1
||-0-------7---------0-------7---------1----| |---8---7---5-------------
||---4/5-----5-5\4p0---0-------5-5\4p0---0-*| |---9---7---5---9--\2-----
||---------0-----------------0--------------| |---------------7--\1-----
||-------0-----------------0----------------| |-------------------------
||-----------------------------------------*| |-------------------------
||-----0-----------------0------------------| |-------------------------
| guitar 2                                  | | 
||-------------5---3-------------5---7------| |-------------------------
||---------0---5---4---------0---5---7-----*| |-9vvvv-------------------
||-0-------0-0---0---0-------0-0---0---0----| |-------------------------
||-------0-----------------0----------------| |-------------------------
||-----------------------------------------*| |-------------------------
||------------------------------------------| |-------------------------

  guitar 1
||----------------------------------------8---7---5---------------------
||----------------------------------------9---7---5---9--\2-------------
||----------------------------------------------------7--\1-------------
||----------------------------------------------------------------------
||----------------------------------------------------------------------
||----------------------------------------------------------------------
| guitar 2
||----------------------------------------------------------------------
||--5vv--/7vv--\2vv--/10-10-10-10\9-9p7-9vvvv----------------------5vv--
||----------------------------------------------------------------------
||----------------------------------------------------------------------
||----------------------------------------------------------------------
||----------------------------------------------------------------------

                                    riff 1.3
  guitar 1
||---------------------------------|------------------------------------
||---------------------------------|------------------------------------
||---------------------------------|--------(12)----(12)------------(12)
||---------------------------------|-----(12)----(12)-------------(12)--
||---------------------------------|--(12)---------------------(12)-----
||---------------------------------|------------------------------------
| guitar 2                         |
||---------------------------------|------------------------------------
||-/7vv--\4vv--/10-10-10-10\9-9h12-|------------------------------------
||---------------------------------|------------------------------------
||---------------------------------|------------------------------------
||---------------------------------|------------------------------------
||---------------------------------|------------------------------------

  guitar 1
||------------------------------------------------------------------||
||------------------------------------------------------------------||
||----(12)-------------(12)----(12)-------------(12)----(12)--------||
||-(12)-------------(12)----(12)-------------(12)----(12)-----------||
||------------------------------------------------------------------||
||---------------(12)---------------------(12)----------------------||
| guitar 2                                                          ||
||------------------------------------------------------------------||
||------------------------------------------------------------------||
||------------------------------------------------------------------||
||------------------------------------------------------------------||
||------------------------------------------------------------------||
||------------------------------------------------------------------||

The song rises and falls on its own, all you really have to do is play it.  Be careful of the
dual lead solo; although it's possible to play it all on one guitar, it kills the atmosphere by
cutting the rhythm too short.

Sunday, 1:30 am
Comments