Otep - Warhead Chords & Tabs

 

Warhead Chords & Tabs

Otep Chords & Tabs

Version: 1 Type: Tab 0 ratings
1 star 2 stars 3 stars 4 stars 5 stars
comments

Warhead Tab

 i dont know if this is correct but i learned it from hear sorta..

tabbed by arch-enemy-17
tuning-standard

E----------------------------------------------------------------|
B----------------------------------------------------------------|
G----------------------------------------------------------------|
D--0--3-2-7-0-3-2-7-0-3-2-7--------------------------------------|
A--0--3-2-7-0-3-2-7-0-3-2-7------------------------------------1-|0x
E--0--5-4-9-0-5-4-9-0-5-4-9--------------------------------------|
[ Tab from: http://www.guitartabs.cc/tabs/o/otep/warhead_tab.html ]
E---------------------------------------------------------------|
B---------------------------------------------------------------|
G---------------------------------------------------------------|
D-00-33-22-7-00-33-22-7--00-33-22-7-----------------------------|
A-00-33-22-7-00-33-22-7--00-33-22-7-----------------------------|
E-00-55-44-9-00-55-44-7--00-55-44-9-----------------------------|2x
repeat first riff and switch off the 2 for half the song
sorry cant get more found it today
E---------------------------------------------------------------|
B---------------------------------------------------------------|
G---------------------------------------------------------------|
D---------------------------------------------------------------|
A---------------------------------------------------------------|
E--0-5-4-9--0-5-4-7-0-5-4-7-0-5-4-7-----------------------------|3x
 ill get rest later
Comments