Otep - Possession Chords & Tabs

 

Possession Chords & Tabs

Otep Chords & Tabs

Version: 1 Type: Tab 0 ratings
1 star 2 stars 3 stars 4 stars 5 stars
comments

Possession Tab

Band- Otep
Song- Possession

Intro :
-----------|
-----------|
-----------|
-----------|
---2---2---|
---2---2---|

----------------------------------------------|------------------|
----------------------------------------------|------------------|
----------------------------------------------|------------<7>---|
---0-2-2-2-2-3--5-4---2-0-0-0-0-2-0-0-0-0-2---|---------<6>------|
---0-2-2-2-2-3--5-4---2-0-0-0-0-2-0-0-0-0-2---|---<6><6>---------|
---0-2-2-2-2-3--5-4---2-0-0-0-0-2-0-0-0-0-2---|------------------|

-----------------------------------------|
-----------------------------------------|
-----------------------------------------|
---2---3---5-4---2-0-0-0-0-2-0-0-0-0-2---|
---2---3---5-4---2-0-0-0-0-2-0-0-0-0-2---|
---2---3---5-4---2-0-0-0-0-2-0-0-0-0-2---|

Verse :
-------------------------------------------------------------|
-------------------------------------------------------------|
-------------------------------------------------------------|
---0-0-0-------------------------0-0-0-----------------------|
---0-0-0---1-1-1-----------------0-0-0---2-2-2---------------|
---0-0-0---------1-1-1-0-0-0-----0-0-0---------2-2-2-1-1-1---|

-----------------------------------------------------------|
-----------------------------------------------------------|
-----------------------------------------------------------|
---0-0-0---8-8-8---------------0-0-0---9-9-9---------------|
---0-0-0---------7-7-7---------0-0-0---------8-8-8---------|
---0-0-0---------------6-6-6---0-0-0---------------7-7-7---|
[ Tab from: http://www.guitartabs.cc/tabs/o/otep/possession_tab.html ]
Pre-chorus :
--------------------------------|
--------------------------------|
--------------------------------|
---0-0---3\2-0-3\2---0-0--1-1---|
---0-0---3\2-0-3\2---0-0--1-1---|
---0-0---3\2-0-3\2---0-0--1-1---|

Chorus :
-------------------------------------|-------------------------------------|
-------------------------------------|-------------------------------------|
-------------------------------------|-------------------------------------|
-----------------3-x-x-x-3-x-x-x-3---|---2-2-2-3-5-4---3-x-x-x-3-x-x-x-3---|
---1-1-1-2-5-4---3-x-x-x-3-x-x-x-3---|---2-2-2-3-5-4---3-x-x-x-3-x-x-x-3---|
-----------------3-x-x-x-3-x-x-x-3---|---2-2-2-3-5-4---3-x-x-x-3-x-x-x-3---|

Bridge :
-----------------------------------|
-----------------------------------|
-----------------------------------|
-----------------------------------|
---1-0-0-1-0-0-1-0--0--0--0-0--0---|
---1-0-0-1-0-0-1-0--0--0--0-0--0---|

--------------------------------|
--------------------------------|
--------------------------------|
--------------------------------|
---2-1-0-1-2-1-0-1-2-1-0--1-1---|
---2-1-0-1-2-1-0-1-2-1-0--1-1---|

« paint your face with the blood  of the WEAK »
-------------------------|
-------------------------|
-------------------------|
---5-4-2-3-2-2-1-0-1-0---|
---5-4-2-3-2-2-1-0-1-0---|
---5-4-2-3-2-2-1-0-1-0---|
                         « Possession… »
------------------------|------------------------|
------------------------|------------------------|
------------------------|------------------------|
---2-2-2-2-2--5--5--5---|---2-2-2-2-2--3--2--1---|
---2-2-2-2-2------------|---2-2-2-2-2--3--2--1---|
---2-2-2-2-2--3--3--3---|---2-2-2-2-2--3--2--1---|

-----------------------------------|
-----------------------------------|
-----------------------------------|
---1-—3—-3—-2--2-2---3-3-2-2-1-1---|
---1--3--3--2--2-2---3-3-2-2-1-1---|
---1--3--3--2--2-2---3-3-2-2-1-1---|
Comments