Otep - Menocide Chords & Tabs

 

Menocide Chords & Tabs

Otep Chords & Tabs

Version: 1 Type: Tab 0 ratings
1 star 2 stars 3 stars 4 stars 5 stars
comments

Menocide Tab

   
Band- Otep
Song- Menocide

Intro:
pickscrapes(w/ delay) and noises
then
C |----------------------------|
G |----------------------------|
Eb|----------------------------|
Bb|----------------------------|
F |----------------------------|
Bb|-8/10-0-0-0-0-0-3bp0-3bp0-3-|
                                                                      
Verse:
C |--------------------------------------|
G |--------------------------------------|
Eb|--------------------------------------|
Bb|--------------------------------------|
F |--------------------------------------|
Bb|-0-0-8-8-10-10-12-12-10-10-8-8\3-3-3--|

Chorus
C |----------------|
G |----------------|
Eb|----------------|
Bb|----------------|
F |-/10-10-4-3-1---|
Bb|-/10-10-4-3-1---|

Verse:
C |-----------------------------------------------------|
G |-----------------------------------------------------|
Eb|-----------------------------------------------------|
Bb|-----------------------------------------------------|
F |-----------------------------------------------------|
Bb|-0-0-3-3-1-1-0-0-4-4-1-1-0-0-6-6-5-5-1-1-1-1-3-3-3-0-|

C |--------------------------------|
G |--------------------------------|
Eb|--------------------------------|
Bb|--------------------------------|
F |------------------------5p3-4p3-|
Bb|-0-0-3-3-1-1-0-4-4-1-1----------|

C |---|
G |---|
Eb|---|
Bb|-0-|
F |-0-|
Bb|-0-|
[ Tab from: http://www.guitartabs.cc/tabs/o/otep/menocide_tab.html ]
Bridge:
C |-------------------------------------------------------|
G |-------------------------------------------------------|
Eb|-------------------------------------------------------|
Bb|-------------------------------------------------------|
F |--6p5p0---------------------2p1p0----------------------|
Bb|--6p5p0-0-0--0-0--0-0--0-0--2p1p0--0-0--0-0--0-0--0-0--|

C |-----------------------------------------------|
G |-----------------------------------------------|
Eb|-----------------------------------------------|
Bb|-----------------------------------------------|
F |--6/5-2\1-6/5-0-0-0-0-6/5-x-2\1-x-6/5-0-0-0-0--|
Bb|--6/5-2\1-6/5-0-0-0-0-6/5-x-2\1-x-6/5-0-0-0-0--|

C |-----------------------------------|
G |-----------------------------------|
Eb|-----------------------------------|
Bb|-----------------------------------|
F |-----------------------------------|
Bb|-6p5-0-2p1-0--6p5-0-2p1-0-1h3p1-0--|

Bridge 2:
C |-----------------------------|
G |-----------------------------|
Eb|-----------------------------|
Bb|-----------------------------|
F |-0-0-0--8-8-8--0-0-0--3-3-3--|
Bb|-0-0-0--8-8-8--0-0-0--3-3-3--|

C |--------------------------|
G |--------------------------|
Eb|--------------------------|
Bb|--------------------------|
F |-0-0-0--7---0-0-0--3-3-3--|
Bb|-0-0-0--7b--0-0-0--3-3-3--|
    .....      .....

Outro:
C |-------------------|
G |-------------------|
Eb|-------------------|
Bb|-------------------|
F |-1-0--3-0--6-------|
Bb|-1-0--3-0--6--\----|

2nd guitar
C |----|
G |----|
Eb|----|
Bb|----|
F |-ph-|
Bb|-3~-|

C |-----------------------------|
G |-----------------------------|
Eb|-----------------------------|
Bb|-----------------------------|
F |-1-0-0-0-3-0-0-0-0-6-0-0-0-0-|
Bb|-1-0-0-0-3-0-0-0-0-6-0-0-0-0-|
    ...........................
Comments