Otep - Blood Pigs Chords & Tabs

 

Blood Pigs Chords & Tabs

Otep Chords & Tabs

Version: 1 Type: Tab 0 ratings
1 star 2 stars 3 stars 4 stars 5 stars
comments

Blood Pigs Tab

artist: otep
song: blood pigs
album: sevas tra
tabbed by: rebecca
drop A tuning

i have yet to see any tab for this song, so i'm going to give it a go. 
the only part i'm unsure about is verse 1, and the outro. but eh, this is
better then nothing.


|---------------------------------|
|---------------------------------|
|---------------------------------|
|-3-2-2-3-2-2-3-2-2-3-2-2-3-2-0-5-4-0--
|-3-2-2-3-2-2-3-2-2-3-2-2-3-2-0-5-4-0--
|-3-2-2-3-2-2-3-2-2-3-2-2-3-2-0-5-4-0--

|---------------------------------|
|---------------------------------|
|---------------------------------|
|-0-2-3-2-2--0-2-3-2-2------------|
|-0-2-3-2-2--0-2-3-2-2------------|
|-0-2-3-2-2--0-2-3-2-2------------|

|---------------------------------|
|---------------------------------|
|---------------------------------|
|---------------------------------|
|---------------------------------|
|-3-0-0-0-3-0-5-6-----------------|


|---------------------------------|
|---------------------------------|
|---------------------------------|
|-3-0-0-0-3-0-5-6-----------------|
|-3-0-0-0-3-0-5-6-----------------|
|-3-0-0-0-3-0-5-6-----------------|

|---------------------------------|
|---------------------------------|
|---------------------------------|
|-0-2-3-2-2--0-2-3-2-2------------|
|-0-2-3-2-2--0-2-3-2-2------------|
|-0-2-3-2-2--0-2-3-2-2------------|

[ Tab from: http://www.guitartabs.cc/tabs/o/otep/blood_pigs_tab.html ]
|---------------------------------|
|---------------------------------|
|---------------------------------|
|---------------------------------|
|-4-x-3-x-x-x-2-x-x-1-------------|
|---------------------------------|


|---------------------------------|
|---------------------------------|
|---------------------------------|
|-2-2-2-2-2-3-0-0--0-2-2-2-2-2-3--|
|-2-2-2-2-2-3-0-0--0-2-2-2-2-2-3--|
|-2-2-2-2-2-3-0-0--0-2-2-2-2-2-3--|


|-5~5~5~5~5~5~5h6-6-6-6-6-6-6-6-5-5-5-5-5-----------------------|
|------------------------------------------6--------------------|
|---------------------------------------------------------------|
|---------------------------------------------------------------|
|---------------------------------------------------------------|
|---------------------------------------------------------------|


|---------------------------------|
|--5---5---5----------------------|
|----8---8---8--------------------|
|---------------------------------|
|---------------------------------|
|---------------------------------||---------------------------------|
|---------------------------------|
|---------------------------------|
|-2-2-2-2-2-2-3-3-3-3-3-3-0-2-2-2-2-2-2-3-3-3-3-3-3
|-2-2-2-2-2-2-3-3-3-3-3-3-0-2-2-2-2-2-2-3-3-3-3-3-3
|-2-2-2-2-2-2-3-3-3-3-3-3-0-2-2-2-2-2-2-3-3-3-3-3-3


|---------------------------------|
|---------------------------------|
|---------------------------------|
|---------------------------------|
|--7-7-7-7-7-7-8888---------------|
|---------------------------------|

then each part repeats a lot, eh you should figure it out .... i have NO
CLUE what the last part is. this is a fucking bad ass song though, and otep
is fucking amazing. email me w/any questions, godismyweapon@hotmail.com
Comments