Otep - Autopsy Song Chords & Tabs

 

Autopsy Song Chords & Tabs

Otep Chords & Tabs

Version: 1 Type: Bass Tab

Autopsy Song Bass Tab

Play this the whole song:
INTRO:
|---9-----9-9-/--6-----6-6--/--12-----12-12-12-12-12--|
|----(11)----------(8)-----------(14)-----------------|
|-----------------------------------------------------|
|-----------------------------------------------------|




[ Tab from: http://www.guitartabs.cc/tabs/o/otep/autopsy_song_btab.html ]
(1:15)
|---9-----9-9-/--6-----6-6-6-/--5-----5-5-5-5-5-5-5-|
|----(11)----------(8)------------(6)---------------|
|---------------------------------------------------|
|---------------------------------------------------|




                             
(1:43)
|----9--9--9---9--9--9--9--9-(x2)10--10--10--10--10--10--10--10--7--7--7--7---7--7--7--7-|
|----------------------------------------------------------------------------------------|
|---(10)------(11)---------------(11)---------------------------(8)----------------------|
|----------------------------------------------------------------------------------------|


Ends with the INTRO