Osker - Unless Chords & Tabs

 

Unless Chords & Tabs

Osker Chords & Tabs

Version: 1 Type: Tab 0 ratings
1 star 2 stars 3 stars 4 stars 5 stars
comments

Unless Tab

OSKER

Unless

tabbed by Daz Taylor  daztaylor84@hotmail.com

intro 
------------------------------------------------------------------------------ 
------------------------------------------------------------------------------ 
------------------------------------------------------------------------------ 
-8-8-6-6-6-6-6-6-------------8-8-6-------------------------------------------- 
-6-6-4-4-4-4-4-4-6-6-6-6-6-6-6-6-4-------------------------------------------- 
-----------------4-4-4-4-4-4-------------------------------------------------- 

verse 
------------------------------------------------------------------------------ 
------------------------------------------------------------------------------ 
------------------------------------------------------------------------------ 
-------------5-5-5-5-5-5-------------6-6-6-6-8-6------------------------------ 
-6-6-6-6-6-6-3-3-3-3-3-3-6-6-6-6-6-6-4-4-4-4-6-4------------------------------ 
-4-4-4-4-4-4-------------4-4-4-4-4-4------------------------------------------ 


------------------------------------------------------------------------------ 
------------------------------------------------------------------------------ 
------------------------------------------------------------------------------ 
-------------6-6-6-8-8-8-------6-6-6------------------------------------------ 
-6-6-6-3-3-3-4-4-4-6-6-6-6-6-6-4-4-4-6-6-6-6-6-6------------------------------ 
-4-4-4-1-1-1-------------4-4-4-------4-4-4-4-4-4------------------------------ 
[ Tab from: http://www.guitartabs.cc/tabs/o/osker/unless_tab.html ]
chorus 
------------------------------------------------------------------------------ 
------------------------------------------------------------------------------ 
------------------------------------------------------------------------------ 
-6-6-6-6-6-6-6-6-6-6-6-6--------------------------------------------6-6-6----- 
-4-4-4-4-4-4-4-4-4-4-4-4-6-6-6-6-6-6-6-6-6-6-6-6--6-6-6-4-4-4-3-3-3-4-4-4-6--- 
-------------------------4-4-4-4-4-4-4-4-4-4-4-4--4-4-4-2-2-2-1-1-1-------4--- 


------------------------------------------------------------------------------ 
------------------------------------------------------------------------------ 
------------------------------------------------------------------------------ 
-----------8-8-8-8------------------------------------------------------------ 
-6-6-6-6-6-6-6-6-6------------------------------------------------------------ 
-4-4-4-4-4-------------------------------------------------------------------- 

bridge 
---------------------|-------------------------------------------------------- 
---------------------|-------------------------------------------------------- 
---------------------|-------------------------------------------------------- 
-4-4--4-4---4-4--4-4-|-4-5-4---2----------5-4---2----------------------------- 
-2-2--2-2---2-2--2-2-|-2-----5---5-4-5--2-----5---5-4-5----------------------- 
---------------------|-------------------------------------------------------- 

outro 
------------------------------------------------------------------------------ 
------------------------------------------------------------------------------ 
------------------------------------------------------------------------------ 
-6---------------------------------6-6-6-------------8-8-8-8-8-8--4-4--------- 
-4-------6-------6-6-6-4-4-4-3-3-3-4-4-4-6-6-6-6-6-6-6-6-6-6-6-6--2-2--------- 
---------4-------4-4-4-2-2-2-1-1-1-------4-4-4-4-4-4-------------------------- 
Comments