Osker - Strangled Chords & Tabs

 

Strangled Chords & Tabs

Osker Chords & Tabs

Version: 1 Type: Tab 0 ratings
1 star 2 stars 3 stars 4 stars 5 stars
comments

Strangled Tab

STRANGLED - Osker

i just found this, i dunno if it is right. punk_kid9@hotmail.com

------------------------------------------------------------------------------
------------------------------------------------------------------------------
------11---11-----------------------------------------------------------------
-9-11-11-9-11-9--9-9-9-8-8-7--------------------------------------------------
-9-11-9--9-9--9--9-9-9-9-9-9--------------------------------------------------
-7-9-----7----7--7-7-7-7-7-7--------------------------------------------------
 Intro/Pre-chorus Riff    rhythm is easy, i put it in for the one part        

------------------------------------------------------------------------------
------------------------------------------------------------------------------
-11-6-4-4-4-3-4-3-------------------------------------------------------------
-11-6-4-4-4-4-4-4-------------------------------------------------------------
-9--4-2-2-2-2-2-2-------------------------------------------------------------
------------------------------------------------------------------------------
 chorus rhythm for 5th are easy, just threw in the B5 little change up riff   
[ Tab from: http://www.guitartabs.cc/tabs/o/osker/strangled_tab.html ]
------------------------------------------------------------------------------
------------------------------------------------------------------------------
-11------11-------------------------------------------------------------------
-11-11-9-11-11-9--------------------------------------------------------------
-9--11-9-9--11-9--------------------------------------------------------------
----9--7----9--7--------------------------------------------------------------
 verses                                                                       

-9----------------------------------------------------------------------------
-11-7-9-----------------------------------------------------------------------
-11-8-10-------------------------------------11-----8-11-11-11-11-10-10-10-10-
-11-9-11-9-9-9-9-9-9-9-9-8-8-8-8-8-8-8-8---9-11-11--8-11-11-11-11-11-11-11-11-
-9--9-11-9-9-9-9-9-9-9-9-9-9-9-9-9-9-9-9---9-9--11--6-9--9--9--9--9--9--9--9--
----7-9--7-7-7-7-7-7-7-7-7-7-7-7-7-7-7-7---7----9-----------------------------
 bridge                                                                       

Transcribed by: Kyle Johnson - KyleHanky@aol.com
                email me for corrections and such.
Comments