Osker - Stop The Bus Chords & Tabs

 

Stop The Bus Chords & Tabs

Osker Chords & Tabs

Version: 1 Type: Tab 0 ratings
1 star 2 stars 3 stars 4 stars 5 stars
comments

Stop The Bus Tab

OSKER

Stop The Bus

tabbed by Daz Taylor  daztaylor84@hotmail.com
[ Tab from: http://www.guitartabs.cc/tabs/o/osker/stop_the_bus_tab.html ]
intro/chorus 
---------------------|-------------------------------------------------------- 
---------------------|-------------------------------------------------------- 
---------------------|-7------------------------------------------------------ 
-7-6-4-2-------------|-7------------------------------------------------------ 
-5-4-2-0-5-5-5-7-7-7-|-5------------------------------------------------------ 
---------3-3-3-5-5-5-|-------------------------------------------------------- 
last chord of song 
verse 
------------------------------------------------------------------------------ 
------------------------------------------------------------------------------ 
------------------------------------------------------------------------------ 
-7-7-7-------4-4-4------------------------------------------------------------ 
-5-5-5-7-7-7-2-2-2-7-7-7------------------------------------------------------ 
-------5-5-5-------5-5-5------------------------------------------------------ 

pre-chorus 
------------------------------------------------------------------------------ 
------------------------------------------------------------------------------ 
------------------------------------------------------------------------------ 
------------------------------------------------------------------------------ 
-5-5-5-5-5-5-7-7-7-7-7-7-5-5-5-5-5-5-7-7-7-7-7-7------------------------------ 
-3-3-3-3-3-3-5-5-5-5-5-5-3-3-3-3-3-3-5-5-5-5-5-5------------------------------ 

bridge(played during base part) 
------------------------------------------------------------------------------ 
------------------------------------------------------------------------------ 
-7-7---------7-7---------7-7---------7-7-------------------------------------- 
------------------------------------------------------------------------------ 
------------------------------------------------------------------------------ 
------------------------------------------------------------------------------ 
Comments