Osker - Life Sucks Chords & Tabs

 

Life Sucks Chords & Tabs

Osker Chords & Tabs

Version: 1 Type: Tab 0 ratings
1 star 2 stars 3 stars 4 stars 5 stars
comments

Life Sucks Tab

OSKER

Life Sucks

tabbed by Daz Taylor  daztaylor84@hotmail.com

verse 
------------------------------------------------------------------------------ 
------------------------------------------------------------------------------ 
------------------------------------------------------------------------------ 
-----------------4-4-4-4-4-4-4-4-----------------5-5-5-5-5-5-5-5-------------- 
-5-5-5-5-5-5-5-5-2-2-2-2-2-2-2-2-2-2-2-2-2-2-2-2-3-3-3-3-3-3-3-3-------------- 
-3-3-3-3-3-3-3-3-----------------0-0-0-0-0-0-0-0------------------------------ 
[ Tab from: http://www.guitartabs.cc/tabs/o/osker/life_sucks_tab.html ]
chorus 
------------------------------------------------------------------------------ 
------------------------------------------------------------------------------ 
------------------------------------------------------------------------------ 
-5-5-5--7-7-7--9-9-9-9-9-9--5-5-5--7-7-7--9-9-9-9-9-9------------------------- 
-3-3-3--5-5-5--7-7-7-7-7-7--3-3-3--5-5-5--7-7-7-7-7-7------------------------- 
------------------------------------------------------------------------------ 

bridge (guitar 1) 
------------------------------------------------------------------------------ 
------------------------------------------------------------------------------ 
------------------------------------------------------------------------------ 
---------5----------------5-----7--------------------------------------------- 
-0-------3--------0-------3-----5--------------------------------------------- 
-2----------------2----------------------------------------------------------- 

(guitar 2) 
------------------------------------------------------------------------------ 
------------------------------------------------------------------------------ 
-12------5----4---12------5-5-5-7-7-7----------------------------------------- 
--------------------------3-3-3-5-5-5----------------------------------------- 
------------------------------------------------------------------------------ 
------------------------------------------------------------------------------ 
Comments