Osker - Falling Apart Chords & Tabs

 

Falling Apart Chords & Tabs

Osker Chords & Tabs

Version: 1 Type: Tab 0 ratings
1 star 2 stars 3 stars 4 stars 5 stars
comments

Falling Apart Tab

OSKER

falling apart

tabbed by Daz Taylor  daztaylor84@hotmail.com

verse 
------------------------------------------------------------------------------ 
------------------------------------------------------------------------------ 
------------------------------------------------------------------------------ 
-------10-10-10-------8-8-8-------8-8-8-10-10-10-10-10-10--------------------- 
-8-8-8--8--8--8-8-8-8-6-6-6-8-8-8-6-6-6--8--8--8--8--8--8--------------------- 
-6-6-6----------6-6-6-------6-6-6--------------------------------------------- 
[ Tab from: http://www.guitartabs.cc/tabs/o/osker/falling_apart_tab.html ]
chorus 
----------------------------|------------------------------------------------- 
----------------------------|------------------------------------------------- 
----------------------------|------------------------------------------------- 
-------10-10-10-8-8-8-8-8-8-|--------8--10------------------------------------ 
-8-8-8--8--8--8-6-6-6-6-6-6-|-8--10--6---8------------------------------------ 
-6-6-6----------------------|-6---8------------------------------------------- 

bridge 
----------------------------------------------------|------------------------- 
----------------------------------------------------|------------------------- 
----------------------------------------------------|------------------------- 
-------------7-7-7-7-7-7-8-8-8-8-8-8-------10-10-10-|---------------10-10-10-- 
-8-8-8-8-8-8-5-5-5-5-5-5-6-6-6-6-6-6-8-8-8--8--8--8-|-8--------------8--8--8-- 
-6-6-6-6-6-6-------------------------6-6-6----------|-6----------------------- 

Comments