Osker - Contention Chords & Tabs

 

Contention Chords & Tabs

Osker Chords & Tabs

Version: 1 Type: Tab 0 ratings
1 star 2 stars 3 stars 4 stars 5 stars
comments

Contention Tab

OSKER
Contention

tabbed by Daz Taylor  daztaylor84@hotmail.com

Intro "Watch your expectations crumble..." 
------------- 
------------- 
----2-7------ 
--4-2-7-7-6-- 
--4-0-5-7-7-- 
--2-----5-4-- 

Pre-Chorus "I'm not the one you want..." 
------- 
------- 
--7-9-- 
--7-9-- 
--5-7-- 
------- 

Chorus "How hard can you push on me..." 
[ Tab from: http://www.guitartabs.cc/tabs/o/osker/contention_tab.html ]
Guitar 1 
----5~------4---|--5^7-7-4-4-4--4^5-5-5-------- 
--5-----4-5-----|-----------------------5-5-5-- 
----------------|------------------------------ 
----------------|------------------------------ 
----------------|------------------------------ 
----------------|------------------------------ 

Guitar 2 
----------- 
----------- 
--2---7-9-- 
--2-4-7-9-- 
--0-4-5-7-- 
----2------ 

Verse 
------------- 
------------- 
----2-7------ 
--4-2-7-7-6-- 
--4-0-5-7-7-- 
--2-----5-4-- 
Comments