Osker - Cannot Chords & Tabs

 

Cannot Chords & Tabs

Osker Chords & Tabs

Version: 1 Type: Tab 0 ratings
1 star 2 stars 3 stars 4 stars 5 stars
comments

Cannot Tab

OSKER

I Cannot

tabbed by Daz Taylor  daztaylor84@hotmail.com


intro 
E------------------------------------------------------------------------------ 
B------------------------------------------------------------------------------ 
G------------------------------------------------------------------------------ 
D-------5-5-5-------7-7-7------------------------------------------------------ 
A-5-5-5-3-3-3-5-5-5-5-5-5------------------------------------------------------ 
E-3-3-3-------3-3-3------------------------------------------------------------ 
[ Tab from: http://www.guitartabs.cc/tabs/o/osker/cannot_tab.html ]
verse 
E------------------------------------------------------------------------------ 
B------------------------------------------------------------------------------ 
G------------------------------------------------------------------------------ 
D-5-5-5-5-5-5-------------5-5-5-5-5-5-------7-7-7------------------------------ 
A-3-3-3-3-3-3-5-5-5-5-5-5-3-3-3-3-3-3-5-5-5-5-5-5------------------------------ 
E-------------3-3-3-3-3-3-------------3-3-3------------------------------------ 

chorus 
E------------------------------------------------------------------------------ 
B------------------------------------------------------------------------------ 
G------------------------------------------------------------------------------ 
D-------------5-5-5-5-5-5-------------7-7-7-7-7-7------------------------------ 
A-5-5-5-5-5-5-3-3-3-3-3-3-5-5-5-2-2-2-5-5-5-5-5-5------------------------------ 
E-3-3-3-3-3-3-------------3-3-3-0-0-0------------------------------------------ 

outro 
E-------------------------------------------------|---------------------------- 
B-------------------------------------------------|---------------------------- 
G-------------------------------------------------|---------------------------- 
D-5-----------------------5-----------------7-----|---------------------------- 
A-3-----------5-----------3-----------5-----5-----|-5-------------------4-4---- 
E-------------3-----------------------3-----------|-3--------/5\2-p0h2--2-2---- 
Comments