Osker - Asshole Chords & Tabs

 

Asshole Chords & Tabs

Osker Chords & Tabs

Version: 1 Type: Tab 0 ratings
1 star 2 stars 3 stars 4 stars 5 stars
comments

Asshole Tab

OSKER
Asshole

tabbed by Daz Taylor  daztaylor84@hotmail.com

intro 
------------------------------------------------------------------------------ 
------------------------------------------------------------------------------ 
------------------------------------------------------------------------------ 
-7-----------7-----------7-----------7---------------------------------------- 
-7-----------7-----------7-----------7---------------------------------------- 
-5-----------5-----------5-----------5---------------------------------------- 

after intro 
------------------------------------------------------------------------------ 
------------------------------------------------------------------------------ 
------------------------------------------------------------------------------ 
-----7-7-----7-7-7------------------------------------------------------------ 
-7-7-5-5-7-9-5-5-5------------------------------------------------------------ 
-5-5-----5-7------------------------------------------------------------------ 

verse 
------------------------------------------------------------------------------ 
------------------------------------------------------------------------------ 
------------------------------------------------------------------------------ 
------------------7-77777777777777------------------7-77777777777777---------- 
-7-77777777777777-5-55555555555555-7-77777777777777-5-55555555555555---------- 
-5-55555555555555------------------5-55555555555555--------------------------- 
xxxxxxxxxxxxxx xxxxxxxxxxxxxx xxxxxxxxxxxxxx xxxxxxxxxxxxxx 
[ Tab from: http://www.guitartabs.cc/tabs/o/osker/asshole_tab.html ]
pre-chorus 
------------------------------------------------------------------------------ 
------------------------------------------------------------------------------ 
------------------------------------------------------------------------------ 
-------------------------------------7-7-7-7-7-7-7-7-------------------------- 
-4-4-4-4-4-4-2-2-2-2-2-2-4-4-4-4-4-4-5-5-5-5-5-5-5-5-------------------------- 
-2-2-2-2-2-2-0-0-0-0-0-0-2-2-2-2-2-2------------------------------------------ 

chorus 
------------------------------------------------------------------------------ 
------------------------------------------------------------------------------ 
------------------------------------------------------------------------------ 
-----------99-7-7-7-7-7-7-------------7-7-7-7-7-7----------------------------- 
-7-7-7-7-7-77-5-5-5-5-5-5-4-4-4-4-4-4-5-5-5-5-5-5----------------------------- 
-5-5-5-5-5----------------2-2-2-2-2-2----------------------------------------- 

bridge solo 
-5--7-5----------------0------------------------------------------------------ 
-5------5-----5----------2---------------------------------------------------- 
-------------------1/2-------------------------------------------------------- 
----------------------------------2--2---------------------------------------- 
----------------------------4-5-4------0-2-4-0-------------------------------- 
------------------------------------------------------------------------------ 

outro 
------------------------------------------------------------------------------ 
------------------------------------------------------------------------------ 
------------------------------------------------------------------------------ 
-7-7-7-7-7-7-7-7-7-7-7-7-7-7-7-7-7--7----------------------------------------- 
-5-5-5-5-5-5-5-5-5-5-5-5-5-5-5-5-5--7----------------------------------------- 
------------------------------------5----------------------------------------- 
Comments