Osker - 1 Chords & Tabs

 

1 Chords & Tabs

Osker Chords & Tabs

Version: 1 Type: Tab 0 ratings
1 star 2 stars 3 stars 4 stars 5 stars
comments

1 Tab

OSKER
13

tabbed by Daz Taylor  daztaylor84@hotmail.com

verse 
------------------------------------------------------------------------------ 
------------------------------------------------------------------------------ 
------------------------------------------------------------------------------ 
-4-x-x-x-x-4------------------------------------------------------------------ 
-2-x-x-x-x-2---2-x-x-x-x-x-x-6-x-x-x-x-6---4-x-x-x-x-x-x---------------------- 
---------------0-x-x-x-x-x-x-4-x-x-x-x-4---2-x-x-x-x-x-x---------------------- 

after verse 
------------------------------------------------------------------------------ 
------------------------------------------------------------------------------ 
------------------------------------------------------------------------------ 
-4-4-4-4-4-4-4---------------------------------------------------------------- 
-2-2-2-2-2-2-2-2-2-2-2-2-2-2-6-6-6-6-6-6-6-4-4-4-4-4-4-4---------------------- 
---------------0-0-0-0-0-0-0-4-4-4-4-4-4-4-2-2-2-2-2-2-2---------------------- 
[ Tab from: http://www.guitartabs.cc/tabs/o/osker/1_tab.html ]
pre-chorus 
------------------------------------------------------------------------------ 
------------------------------------------------------------------------------ 
------------------------------------------------------------------------------ 
------------------------------------------------------------------------------ 
-2-2-2-2-2-2-2-4-4-4-4-4-4-4-2-2-2-2-2-2-2-4-4-4-4-4-4-4---------------------- 
-0-0-0-0-0-0-0-2-2-2-2-2-2-2-0-0-0-0-0-0-0-2-2-2-2-2-2-2---------------------- 

chorus 
---------------------------------------------------------|-------------------- 
---------------------------------------------------------|-------------------- 
---------------------------------------------------------|-------------------- 
-4-4-4-4-4-4-4---------------6-6-6-6-6-6-6-9-9-9-9-9-9-9-|-4------------------ 
-2-2-2-2-2-2-2-6-6-6-6-6-6-6-4-4-4-4-4-4-4-7-7-7-7-7-7-7-|-2------------------ 
---------------4-4-4-4-4-4-4-----------------------------|-------------------- 

bridge/outro 
------------------------------------------------------------------------------ 
------------------------------------------------------------------------------ 
---4---------4-4-4-4-3-x-x-x-4-4-4-3-x-x-x-4-4-4-3-x-x-x-4-4-4-3-------------- 
-4---------4---4-4-4-4-x-x-x-4-4-4-4-x-x-x-4-4-4-4-x-x-x-4-4-4-4-------------- 
---------------2-2-2-2-x-x-x-2-2-2-2-x-x-x-2-2-2-2-x-x-x-2-2-2-2-------------- 
------------------------------------------------------------------------------ 
Comments