Oscar Lopez - Gypsy Passion Chords & Tabs

 

Gypsy Passion Chords & Tabs

Oscar Lopez Chords & Tabs

Version: 1 Type: Tab 0 ratings
1 star 2 stars 3 stars 4 stars 5 stars
comments

Gypsy Passion Tab

    gypsy passion tab by oscar lopez


             classical guitar


|----------------5-------------|
|--------------5---5-----------|
|---------2--5-------5-2-------|
|-------4---------------4------|
|-3-----------------------3----|
|------------------------------|

|--------------0---0---0---0------0----------------|
|-------------1---1---1---1----1-1----1------------|
|----------0h2---4---2---0------0----0--0h2p0---0--|
|----0-2-4-------------------4------4---------4----|
|-3------------------------------------------------|
|--------------------------------------------------|

|-----------------------------------------------------------|
|---------------1---1---1---1---1---1---1---1---1--1--------|
|--------------0---0---0---0---0---0---0---0---0----0-------|
|-4-2p0---0h2h4---2---4---2---4---2---4---2---4---2---0h2p0-|
|-------3---------------------------------------------------|
|-----------------------------------------------------------|

|------------------0------------------|
|---1----1---1-----1--------1-----0---|
|-------------------------------------|
|-------------------------------------|
|-3---3---------3-------------2h3p2---|
|-------------------------------------|

|------------------5-------------|
|----------------5---5-----------|
|-2---------2--5-------5-2-------|
|---------4---------------4------|
|---3-----------------------3----|
|--------------------------------|
[ Tab from: http://www.guitartabs.cc/tabs/o/oscar_lopez/gypsy_passion_tab.html ]
|--------------------------------0------------|
|--------------0h1--4/5---------4--5-4-3h4p3--|
|----------0h2--------------------------------|
|----0h2h4------------------------------------|
|-3-------------------------------------------|
|---------------------------------------------|

|---------------------------------------------|
|-1h3p1-----0-------------------------1-------|
|-------4-2-----0h2p0----------------0---0----|
|-------------4-------4-2p0----0h2h4----2p0---|
|----------------------------3----------------|
|---------------------------------------------|


|-----------------------------------------------|
|---------1---1---1---1---1---1---1---1---1---1-|
|--------0---0---0---0---0---0---0---0---0---0--|
|---0h2h4---2---4---2---4---2---4---2---4---2---|
|-3---------------------------------------------|
|-----------------------------------------------|

|----0---------0----------------------|
|------1-------1--------1-------0-----|
|-0-----------------------------------|
|-0--------0--------------------------|
|--------3---3--------tap-2-2-3---2---|
|-------------------------------------|

|-0--0---0----0-|
|-1--1---1----1-|
|-----------2---| x 4
|------4--------|
|--3------------|
|---------------|

|---0---0---0---|
|---1---1---1---|
|---------4-----|
|-----4---------| x 4
|-2-------------|
|---------------|

|-0--0---0----0-|
|-1--1---1----1-|
|-----------2---| x 2
|------4--------|
|--3------------|
|---------------|

|---0---0---0---|
|---1---1---1---|
|---------0-----|
|-----4---------| x 2
|-3-------------|
|---------------|

|---0---0---0---|
|---1---1---1---|
|---------4-----|
|-----4---------| x 4
|-2-------------|
|---------------|







    pompom@sympatico.ca                 steve.........
Comments