Osbourne Ozzy - You Cant Kill Rock And Roll Chords & Tabs

 

You Cant Kill Rock And Roll Chords & Tabs

Osbourne Ozzy Chords & Tabs

Version: 2 Type: Tab 1 rating
1 star 2 stars 3 stars 4 stars 5 stars
comments

You Cant Kill Rock And Roll Tab

I have included both guitar parts guitar 1 is the intro and verses and
part 2 is the pre-chorus and chorus.  The empty measures are where you
should switch between the guitar parts.

If anyone wants the solo let me know and I will do my best.

Guitar 1

                                                                        
D#||--------0--------------------0--|--------0--------------0h7h0---0--|
A#||-----------0-----------0---0----|----------0----------0------------|
F#||------8------8-------8---8------|------6-----6----------------6----|
C#||----9----------9---9------------|----7---------7----7--------------|
G#||----9---------------------------|--0--------------0----------------|
D#||--7--------------7--------------|----------------------------------|


                                                                    
--------0--------------------0--|--------9---------------0h7h0-0---|
-----------0-----------0---0----|--------------0-----0-------------|
------8------8-------8---8------|------6-----6---6-----6-----------|
----9----------9---9------------|----7-----7-----------------------|
----9---------------------------|--0---------------0---------------|
--7--------------7--------------|----------------------------------|


                                                                    
--------0---------------------0--|--------9--------------10/9------|
------------0-----------0---0----|------------0--------------------|
------8-------8-------8---8------|------6-------6----6-----------0-|
----9-----9-----9---9------------|----7-----7----------7-------7---|
---------------------------------|--0--------------0---------------|
--7---------------7--------------|---------------------------------|


                                                                
--------0--------------------0--|--------9------------0--------|
-----------0-----------0---0----|------------0----------12-----|
------8------8-------8---8------|------6-------6----6----------|
----9----------9---9------------|----7-----7-------------------|
----9---------------------------|--0--------------0------------|
--7--------------7--------------|------------------------------|


                                                                   
--------0-------------------0--|--------9-------------0h7h0h7h0---|
-----------0----------0---0----|-----------0------0---------------|
------8------8------8---8------|------6------6------6-------------|
----9-------------9------------|----7-----------------------------|
-------------------------------|--0-------------0-----------------|
--7-------------7--------------|----------------------------------|


                                                                   
--------0-------------------0--|--------9--------0h7h0--10/9------|
-----------0----------0---0----|--------------0-----------------0-|
------8------8------8---8------|------6-----6---------------------|
----9-------------9------------|----7-----7-------------------7---|
-------------------------------|--0-------------------------------|
--7-------------7--------------|----------------------------------|


                                                                 
--------0--------------------0--|--------9------------0h7h0--0--|
-----------0-----------0---0----|-----------0-------------------|
------8------8-------8---8------|------6------6-----------------|
----9----------9---9------------|----7--------------7-----------|
----9---------------------------|--0-------------0--------------|
--7--------------7--------------|-------------------------------|


                                                                 
--------0-------------------0--|---------9--------------7-9--10-|
-----------0----------0---0----|------0--------0----------------|
------8------8------8---8------|----6--------6---6--------------|
----9-------------9------------|--7--------7--------------------|
-------------------------------|--0----------------0------------|
--7-------------7--------------|--------------------------------|


                                                                     
------10-9/7-9----9-------|----------9----------9-------------9--10-|
---------------------10---|------------12----12---12----12-12-------|
--------------------------|----11-11------11---------11-------------|
--------------------------|-----------------------------------------|
--------------------------|-----------------------------------------|
--------------------------|-----------------------------------------|


                                                                          
------10-9----9---9-9-----|----------2-------2--------|------------------|
-----------12-------------|--------2---2---2-2--------|------------------|
--------------------------|--4---4-------4---4--------|------------------|
--------------------------|--4-4-------------4--------|------------------|
--------------------------|--2---------------2--------|------------------|
--------------------------|---------------------------|------------------|


                                                                            
------------------|------------------|------------------|------------------|
------------------|------------------|------------------|------------------|
------------------|------------------|------------------|------------------|
------------------|------------------|------------------|------------------|
------------------|------------------|------------------|------------------|
------------------|------------------|------------------|------------------|


                                                                            
------------------|------------------|------------------|------------------|
------------------|------------------|------------------|------------------|
------------------|------------------|------------------|------------------|
------------------|------------------|------------------|------------------|
------------------|------------------|------------------|------------------|
------------------|------------------|------------------|------------------|


                                                                            
------------------|------------------|------------------|------------------|
------------------|------------------|------------------|------------------|
------------------|------------------|------------------|------------------|
------------------|------------------|------------------|------------------|
------------------|------------------|------------------|------------------|
------------------|------------------|------------------|------------------|


                                                               
------------------|------------------|-------------6----------|
------------------|------------------|----5-----5-----5-------|
------------------|------------------|-------6-----------6----|
------------------|------------------|------------------------|
------------------|------------------|------------------------|
------------------|------------------|------------------------|


                                                           
--7-----------7----------|--------0--------------------0--|
-----5-----5-----5-------|-----------0-----------0---0----|
--------6-----------6----|------8------8-------8---8------|
-------------------------|----9----------9---9------------|
-------------------------|--------------------------------|
-------------------------|--7--------------7--------------|


                                                                 
--------0-------------0h7h0----|--------0--------------------0--|
-----------0--------0----------|-----------0-----------0---0----|
------6------6-----------------|------8------8-------8---8------|
----7-------------7------------|----9----------9---9------------|
--0-------------0--------------|--------------------------------|
-------------------------------|--7--------------7--------------|


                                                            
--------0-------------7----|--------0-------------------0--|
-----------0--------7------|-----------0----------0---0----|
------6------6-------------|------8------8------8---8------|
----7----------------------|----9-------------9------------|
--0-------------0----------|-------------------------------|
---------------------------|--7-------------7--------------|


                                                                   
--------9-------------0h7h0h7h0---|--------0-------------------0--|
-----------0------0---------------|-----------0----------0---0----|
------6------6------6-------------|------8------8------8---8------|
----7-----------------------------|----9-------------9------------|
--0-------------0-----------------|-------------------------------|
----------------------------------|--7-------------7--------------|


                                                                    
--------9--------0h7h0--10/9------|--------0--------------------0--|
--------------0-----------------0-|-----------0-----------0---0----|
------6-----6---------------------|------8------8-------8---8------|
----7-----7-------------------7---|----9----------9---9------------|
--0-------------------------------|----9---------------------------|
----------------------------------|--7--------------7--------------|


                                                                
--------9------------0h7h0--0--|--------0-------------------0--|
-----------0-------------------|-----------0----------0---0----|
------6------6-----------------|------8------8------8---8------|
----7--------------7-----------|----9-------------9------------|
--0-------------0--------------|-------------------------------|
-------------------------------|--7-------------7--------------|


                                                            
---------9--------------7-9--10-|------10-9/7-9----9-------|
------0--------0----------------|---------------------10---|
----6--------6---6--------------|--------------------------|
--7--------7--------------------|--------------------------|
--0----------------0------------|--------------------------|
--------------------------------|--------------------------|


                                                                     
----------9----------9-------------9--10-|------10-9----9---9-9-----|
------------12----12---12----12-12-------|-----------12-------------|
----11-11------11---------11-------------|--------------------------|
-----------------------------------------|--------------------------|
-----------------------------------------|--------------------------|
-----------------------------------------|--------------------------|


                                                                  
----------2-------2--------|------------------|------------------|
--------2---2---2-2--------|------------------|------------------|
--4---4-------4---4--------|------------------|------------------|
--4-4-------------4--------|------------------|------------------|
--2---------------2--------|------------------|------------------|
---------------------------|------------------|------------------|


                                                                            
------------------|------------------|------------------|------------------|
------------------|------------------|------------------|------------------|
------------------|------------------|------------------|------------------|
------------------|------------------|------------------|------------------|
------------------|------------------|------------------|------------------|
------------------|------------------|------------------|------------------|


                                                                            
------------------|------------------|------------------|------------------|
------------------|------------------|------------------|------------------|
------------------|------------------|------------------|------------------|
------------------|------------------|------------------|------------------|
------------------|------------------|------------------|------------------|
------------------|------------------|------------------|------------------|


                                                                            
------------------|------------------|------------------|------------------|
------------------|------------------|------------------|------------------|
------------------|------------------|------------------|------------------|
------------------|------------------|------------------|------------------|
------------------|------------------|------------------|------------------|
------------------|------------------|------------------|------------------|


                                                                            
------------------|------------------|------------------|------------------|
------------------|------------------|------------------|------------------|
------------------|------------------|------------------|------------------|
------------------|------------------|------------------|------------------|
------------------|------------------|------------------|------------------|
------------------|------------------|------------------|------------------|


                                                                            
------------------|------------------|------------------|------------------|
------------------|------------------|------------------|------------------|
------------------|------------------|------------------|------------------|
------------------|------------------|------------------|------------------|
------------------|------------------|------------------|------------------|
------------------|------------------|------------------|------------------|


                                                                            
------------------|------------------|------------------|------------------|
------------------|------------------|------------------|------------------|
------------------|------------------|------------------|------------------|
------------------|------------------|------------------|------------------|
------------------|------------------|------------------|------------------|
------------------|------------------|------------------|------------------|


                                                                    
----------|------------------|------------------|------------------|
----------|------------------|------------------|------------------|
----------|------------------|------------------|------------------|
----------|------------------|------------------|------------------|
----------|------------------|------------------|------------------|
----------|------------------|------------------|------------------|


                                                                            
------------------|------------------|------------------|------------------|
------------------|------------------|------------------|------------------|
------------------|------------------|------------------|------------------|
------------------|------------------|------------------|------------------|
------------------|------------------|------------------|------------------|
------------------|------------------|------------------|------------------|


                                                                            
------------------|------------------|------------------|------------------|
------------------|------------------|------------------|------------------|
------------------|------------------|------------------|------------------|
------------------|------------------|------------------|------------------|
------------------|------------------|------------------|------------------|
------------------|------------------|------------------|------------------|


                                                                            
------------------|------------------|------------------|------------------|
------------------|------------------|------------------|------------------|
------------------|------------------|------------------|------------------|
------------------|------------------|------------------|------------------|
------------------|------------------|------------------|------------------|
------------------|------------------|------------------|------------------|


                                                                            
------------------|------------------|------------------|------------------|
------------------|------------------|------------------|------------------|
------------------|------------------|------------------|------------------|
------------------|------------------|------------------|------------------|
------------------|------------------|------------------|------------------|
------------------|------------------|------------------|------------------|


                                                                            
------------------|------------------|------------------|------------------|
------------------|------------------|------------------|------------------|
------------------|------------------|------------------|------------------|
------------------|------------------|------------------|------------------|
------------------|------------------|------------------|------------------|
------------------|------------------|------------------|------------------|


                                                                            
------------------|------------------|------------------|------------------|
------------------|------------------|------------------|------------------|
------------------|------------------|------------------|------------------|
------------------|------------------|------------------|------------------|
------------------|------------------|------------------|------------------|
------------------|------------------|------------------|------------------|


                                                                            
------------------|------------------|------------------|------------------|
------------------|------------------|------------------|------------------|
------------------|------------------|------------------|------------------|
------------------|------------------|------------------|------------------|
------------------|------------------|------------------|------------------|
------------------|------------------|------------------|------------------|


                                                                            
------------------|------------------|------------------|------------------|
------------------|------------------|------------------|------------------|
------------------|------------------|------------------|------------------|
------------------|------------------|------------------|------------------|
------------------|------------------|------------------|------------------|
------------------|------------------|------------------|------------------|


                                                                            
------------------|------------------|------------------|------------------|
------------------|------------------|------------------|------------------|
------------------|------------------|------------------|------------------|
------------------|------------------|------------------|------------------|
------------------|------------------|------------------|------------------|
------------------|------------------|------------------|------------------|


                                                                            
------------------|------------------|------------------|------------------|
------------------|------------------|------------------|------------------|
------------------|------------------|------------------|------------------|
------------------|------------------|------------------|------------------|
------------------|------------------|------------------|------------------|
------------------|------------------|------------------|------------------|


                                                                            
------------------|------------------|------------------|------------------|
------------------|------------------|------------------|------------------|
------------------|------------------|------------------|------------------|
------------------|------------------|------------------|------------------|
------------------|------------------|------------------|------------------|
------------------|------------------|------------------|------------------|


                                                                            
------------------|------------------|------------------|------------------|
------------------|------------------|------------------|------------------|
------------------|------------------|------------------|------------------|
------------------|------------------|------------------|------------------|
------------------|------------------|------------------|------------------|
------------------|------------------|------------------|------------------|


                                                                            
------------------|------------------|------------------|------------------|
------------------|------------------|------------------|------------------|
------------------|------------------|------------------|------------------|
------------------|------------------|------------------|------------------|
------------------|------------------|------------------|------------------|
------------------|------------------|------------------|------------------|


                                                                            
------------------|------------------|------------------|------------------|
------------------|------------------|------------------|------------------|
------------------|------------------|------------------|------------------|
------------------|------------------|------------------|------------------|
------------------|------------------|------------------|------------------|
------------------|------------------|------------------|------------------|


                                                                            
------------------|------------------|------------------|------------------|
------------------|------------------|------------------|------------------|
------------------|------------------|------------------|------------------|
------------------|------------------|------------------|------------------|
------------------|------------------|------------------|------------------|
------------------|------------------|------------------|------------------|


                                                                            
------------------|------------------|------------------|------------------|
------------------|------------------|------------------|------------------|
------------------|------------------|------------------|------------------|
------------------|------------------|------------------|------------------|
------------------|------------------|------------------|------------------|
------------------|------------------|------------------|------------------|


                                                                            
------------------|------------------|------------------|------------------|
------------------|------------------|------------------|------------------|
------------------|------------------|------------------|------------------|
------------------|------------------|------------------|------------------|
------------------|------------------|------------------|------------------|
------------------|------------------|------------------|------------------|


                    
------------------||
------------------||
------------------||
------------------||
------------------||
------------------||


Guitar 2


[ Tab from: http://www.guitartabs.cc/tabs/o/osbourne_ozzy/you_cant_kill_rock_and_roll_tab_ver_2.html ]
                                                                                
D#||------------------|------------------|------------------|------------------|
A#||------------------|------------------|------------------|------------------|
F#||------------------|------------------|------------------|------------------|
C#||------------------|------------------|------------------|------------------|
G#||------------------|------------------|------------------|------------------|
D#||------------------|------------------|------------------|------------------|


                                                                            
------------------|------------------|------------------|------------------|
------------------|------------------|------------------|------------------|
------------------|------------------|------------------|------------------|
------------------|------------------|------------------|------------------|
------------------|------------------|------------------|------------------|
------------------|------------------|------------------|------------------|


                                                                            
------------------|------------------|------------------|------------------|
------------------|------------------|------------------|------------------|
------------------|------------------|------------------|------------------|
------------------|------------------|------------------|------------------|
------------------|------------------|------------------|------------------|
------------------|------------------|------------------|------------------|


                                                                               
------------------|------------------|------------------|---------------------|
------------------|------------------|------------------|---------------------|
------------------|------------------|------------------|---------------------|
------------------|------------------|------------------|---------------------|
------------------|------------------|------------------|---------------------|
------------------|------------------|------------------|--------------x-15/--|


                                                                     
----------------------|----------------------|----------------------|
----------------------|----------------------|----------------------|
----------------------|----------------------|----------------------|
----------------------|--9--------9----9-7---|--5-------------------|
----------------------|--x--------x----x-x---|--x-------------------|
--3~-----2/3-5--------|--7--------7----7-5---|--3------2/3-5--------|


                                                                              
-----2-2-2-2-2-2-x------------|-----------------------|----------------------|
-----2-2-2-2-2-2-x------------|-----------------------|----------------------|
--4--4-4-4-4-4-4-x------------|-------4-------7----9--|----------------------|
--4--4-4-4-4-4-4--------------|-------4-------7----9--|----------------------|
--2--2-2-2-2-2-2----------5-4-|--2----2----0--5----7--|----------------4-----|
----------------------0-2-----|---------------5----0--|----------0--2-----2--|


                                                                         
------------------------|-----------------------|-----------------------|
------------------------|-----------------------|--------------------9--|
--4----4-------------4--|-----------------------|-------4-------7----9--|
--4----4-------------2--|-----------------------|-------4----0--7----9--|
--2----2----0-----------|------0----------5--4--|--2----2----0--5----7--|
---------------4h-0-----|-----------0--2--------|---------------5----0--|


                                                                        
----------------------|------------------------|-----------------------|
----------------------|------------------------|-----------------------|
----------------------|--4----4-------------4--|-----------------------|
----------------------|--4----4-------------2--|-----------------2-----|
----------------4-----|--2----2----0-----------|------0----0--4-----4--|
----------0--2-----2--|---------------4h-0-----|-----------------------|


                                                                         
--------0------0-------|-----------------------|--------0---------------|
--3--3--3------3-------|------2----------------|--------3------3-----2--|
--2--2--2------2----2--|------2----------------|--2--2--2------2-----2--|
--0--0--0------0----2--|------2----------2-----|--0--0---------0--0--2--|
--------------------0--|------0----0--4-----4--|------------------0--0--|
-----------------------|-----------------------|------------------------|


                                                                     
----------------------|-------2------5------|--2--------------------|
----------------------|-------3------3------|--3------2--2----------|
----------------------|--4----4-------------|--2------2--2----------|
----------2-----------|--4----4-------------|--4------2--2----------|
-------------5--4--5--|--2----2-------------|--0------0--0----------|
----------------------|---------------------|-----------------14/---|


                                                               
-------3------2------|--2----------------|--------------------|
-------3------3------|--2----------------|--5-----------------|
-------0------2------|--3----------------|--4-----------------|
-------0------0------|--4----------------|--4-----------------|
-------x------0------|--4----------------|--4-----------------|
--7----3-------------|--2----------------|--2--------------4--|


                                                                            
------------------|------------------|------------------|------------------|
------------------|------------------|------------------|------------------|
------------------|------------------|------------------|------------------|
------------------|------------------|------------------|------------------|
------------------|------------------|------------------|------------------|
------------------|------------------|------------------|------------------|


                                                                            
------------------|------------------|------------------|------------------|
------------------|------------------|------------------|------------------|
------------------|------------------|------------------|------------------|
------------------|------------------|------------------|------------------|
------------------|------------------|------------------|------------------|
------------------|------------------|------------------|------------------|


                                                                               
------------------|------------------|------------------|---------------------|
------------------|------------------|------------------|---------------------|
------------------|------------------|------------------|---------------------|
------------------|------------------|------------------|---------------------|
------------------|------------------|------------------|---------------------|
------------------|------------------|------------------|--------------x-15/--|


                                                                     
----------------------|----------------------|----------------------|
----------------------|----------------------|----------------------|
----------------------|----------------------|----------------------|
----------------------|--9--------9----9-7---|--5-------------------|
----------------------|--x--------x----x-x---|--x-------------------|
--3~-----2/3-5--------|--7--------7----7-5---|--3------2/3-5--------|


                                                                              
-----2-2-2-2-2-2-x------------|-----------------------|----------------------|
-----2-2-2-2-2-2-x------------|-----------------------|----------------------|
--4--4-4-4-4-4-4-x------------|-------4-------7----9--|----------------------|
--4--4-4-4-4-4-4--------------|-------4-------7----9--|----------------------|
--2--2-2-2-2-2-2----------5-4-|--2----2----0--5----7--|----------------4-----|
----------------------0-2-----|---------------5----0--|----------0--2-----2--|


                                                                         
------------------------|-----------------------|-----------------------|
------------------------|-----------------------|--------------------9--|
--4----4-------------4--|-----------------------|-------4-------7----9--|
--4----4-------------2--|-----------------------|-------4----0--7----9--|
--2----2----0-----------|------0----------5--4--|--2----2----0--5----7--|
---------------4h-0-----|-----------0--2--------|---------------5----0--|


                                                                        
----------------------|------------------------|-----------------------|
----------------------|------------------------|-----------------------|
----------------------|--4----4-------------4--|-----------------------|
----------------------|--4----4-------------2--|-----------------2-----|
----------------4-----|--2----2----0-----------|------0----0--4-----4--|
----------0--2-----2--|---------------4h-0-----|-----------------------|


                                                                         
--------0------0-------|-----------------------|--------0---------------|
--3--3--3------3-------|------2----------------|--------3------3-----2--|
--2--2--2------2----2--|------2----------------|--2--2--2------2-----2--|
--0--0--0------0----2--|------2----------2-----|--0--0---------0--0--2--|
--------------------0--|------0----0--4-----4--|------------------0--0--|
-----------------------|-----------------------|------------------------|


                                                                     
----------------------|-------2------5------|--2--------------------|
----------------------|-------3------3------|--3------2--2----------|
----------------------|--4----4-------------|--2------2--2----------|
----------2-----------|--4----4-------------|--4------2--2----------|
-------------5--4--5--|--2----2-------------|--0------0--0----------|
----------------------|---------------------|-----------------14/---|


                                                    
-------3------2------|--------------------------0--|
-------3------3------|-----------------------2--0--|
-------0------2------|-----------------------2--1--|
-------0------0------|----4-4---4------------2--2--|
-------x------0------|----4-4---4------------0--2--|
--7----3-------------|--0-2-2-0-2----2-0-2-4----0--|


                                                            
-----------------------------|--------------------------0--|
-----------------------------|-----------------------2--0--|
-----------------------7--9--|-----------------------2--1--|
----4-4---4------------7--9--|----4-4---4------------2--2--|
----4-4---4------------5--7--|----4-4---4------------0--2--|
--0-2-2-0-2----2-0-2-4-------|--0-2-2-0-2----2-0-2-4----0--|


                                                            
-----------------------------|--------------------------0--|
-----------------------------|-----------------------2--0--|
-----------------------7--9--|-----------------------2--1--|
----4-4---4------------7--9--|----4-4---4------------2--2--|
----4-4---4------------5--7--|----4-4---4------------0--2--|
--0-2-2-0-2----2-0-2-4-------|--0-2-2-0-2----2-0-2-4----0--|


                                                            
-----------------------------|--------------------------0--|
-----------------------------|-----------------------2--0--|
-----------------------7--9--|-----------------------2--1--|
----4-4---4------------7--9--|----4-4---4------------2--2--|
----4-4---4------------5--7--|----4-4---4------------0--2--|
--0-2-2-0-2----2-0-2-4-------|--0-2-2-0-2----2-0-2-4----0--|


                                                          
-----------------------------|--------0-----------0------|
-----------------------------|--------0-----------0------|
-----------------------7--9--|------------------6--------|
----4-4---4------------7--9--|------9---------7----------|
----4-4---4------------5--7--|----9---------7----------7/|
--0-2-2-0-2----2-0-2-4-------|--7-----------5----------5/|


                                                                          
--------0------------0--0-----|--------0------------0-----|--0-----------|
--------0---0--------0--0-----|--------0---0--------0-----|--0-----------|
------------------6-----6-----|-------------------6-------|--------------|
------9--------7--------------|------9----------7---------|----x---------|
--9-9----------7------------7/|--9-9----------7-----------|----x---x--0--|
--7------------5------------5/|--7------------5-----------|-----------0--|


                                                                        
--2------------------|-------0-------------------|--2------------2-----|
--2------------------|---------------------------|--2------------2-----|
--4------------------|--2----------------------0-|--4------------4-----|
--4------------------|--2----------------------0-|--4------------4-----|
--2------------------|--0-----------0------0-----|--2------------2-----|
----------------3b-3-|-----------------15/---3---|------------------3~-|


                                                                       
-------------------------|--0----------------|--0---------------------|
--2---------x-x-x--------|--0----------------|--0---------------------|
--2---------x-x-x-x------|--4----------------|--2---------------------|
--2---------x-x-x-x------|--4----------------|--2---------------------|
--0---------------x--0---|--2----------------|--0---------------------|
-----------------------3-|-------------------|-------------0-0-2r---0-|


                                                                     
--------0-------------|-------0----------------|--2-----------------|
--------0-------------|----------0-------------|--2-----------------|
--4---4-4-------------|--2-------2--2----------|--4-----------------|
--4---4-4-------------|--2-------2--2----------|--4-----------------|
--2---2-2-------------|--0----------0----------|--2-----------------|
-------------------3b-|-------------------3~-3-|----------------3b--|


                                                                       
----------------------|------0---2--------2----|----------------------|
--2-------------------|------0---2--------2----|--2------------2------|
--2-------------2-----|--4-------4--4-----4----|--2------------2------|
--2-------------2-----|--4-------4--4-----4----|--2------------2------|
--0-------------0-----|--2----------2-----2h-0-|--0------------0------|
------------------0-0-|------------------------|---------------0-2-2b-|


                                                           
--3----3-------------------|--------2--2-2-2-2-2--2-2-2---|
--3----3------2-----2------|--------2--2-2-2-2-2--2-2-2---|
--0----0------2-----2------|--4---4-4--4-4-4-4-4--4-4-4-0-|
--0----0------2-----2------|--4---4-4--4-4-4-4-4--4-4-4-0-|
--x----x----0-0-----0------|--2---2-2--2-2-2-2-2--2-2-2---|
--3----3--------0-3----3h0-|------------------------------|


                                                                                
--3----3------------------|------2-2--2-2--------------|-----------------------|
--3----3----2------2------|------2-2--2-2--------------|-----------------------|
--0----0----2------2------|--4---4-4--4-4--------------|-------4-------7----9--|
--0----0----2------2------|--4---4-4--4---x------------|-------4-------7----9--|
--x----x----0--0---0----0-|--2---2-2--2---x--------5-4-|--2----2----0--5----7--|
--3----3---------3----3---|--------------------0-2-----|---------------5----0--|


                                                                        
----------------------|------------------------|-----------------------|
----------------------|------------------------|-----------------------|
----------------------|--4----4-------------4--|-----------------------|
----------------------|--4----4-------------2--|-----------------------|
----------------4-----|--2----2----0-----------|------0----------5--4--|
----------0--2-----2--|---------------4h-0-----|-----------0--2--------|


                                                                        
-----------------------|----------------------|------------------------|
--------------------9--|----------------------|------------------------|
-------4-------7----9--|----------------------|--4----4-------------4--|
-------4----0--7----9--|----------------------|--4----4-------------2--|
--2----2----0--5----7--|----------------4-----|--2----2----0-----------|
---------------5----0--|----------0--2-----2--|---------------4h-0-----|


                                                                                
-------------------------------|--------0------0-------|-----------------------|
-------------------------------|--3--3--3------3-------|------2----------------|
------------4h2h0--------------|--2--2--2------2----2--|------2----------------|
---------0--------4h2h0--------|--0--0--0------0----2--|------2----------2-----|
------0-----------------2h0----|--------------------0--|------0----0--4-----4--|
----------------------------3--|-----------------------|-----------------------|


                                                                      
--------0---------------|----------------------|-------2------5------|
--------3------3-----2--|----------------------|-------3------3------|
--2--2--2------2-----2--|----------------------|--4----4-------------|
--0--0---------0--0--2--|----------2-----------|--4----4-------------|
------------------0--0--|-------------5--4--5--|--2----2-------------|
------------------------|----------------------|---------------------|


                                                                        
--2--------------------|-------3------2------|--------------2----------|
--3------2--2----------|-------3------3------|--------------2----------|
--2------2--2----------|-------0------2------|--------------3----------|
--4------2--2----------|-------0------0------|--4--4--4--4--4----4--4--|
--0------0--0----------|-------x------0------|--4--4--4--4--4----4--4--|
-----------------14/---|--7----3-------------|--2--2--2--2--2----2--2--|


                                                                           
--------------------------|-----------------------|-----------------------|
--------2--2--2-----------|-----------------------|-----------------------|
--3--3--3--3--3-----------|-------4-------7----9--|------9----------------|
--4--4--4--4--4-----------|-------4-------7----9--|------9----------------|
--4--4--4--4--4-----5--4--|--2----2----0--5----7--|------7----------4-----|
--2--2--2--2--2--2--------|--------------------0--|-----------0--2-----2--|


                                                                         
--2----2----2-----------|-----------------------|-----------------------|
--2----2----2-----------|-----------------------|-----------------------|
--4----4----4--------4--|-----------------------|-------4-------7----9--|
--4----4----4--------2--|-----------------------|-------4-------7----9--|
--2----2----2-----------|------0----------5--4--|--2----2----0--5----7--|
---------------4h-0-----|-----------0--2--------|--------------------0--|


                                                 
-----------------------|-------2-------------0--|
-----------------------|-------2-------------0--|
------9----------------|--4----4-------------2--|
------9----------------|--4----4-------------2--|
------7----------4-----|--2----2----0--------0--|
-----------0--2-----2--|---------------4h-0-----|


                                                          
------0--------------------------|-------0----0--0-------|
------0--------------------------|--3----3----3--3----2--|
------2----4h2h0---0-------------|--2----2----2--2----2--|
------2----------4---4h2h0-------|--0----0----0--0----2--|
------0--------------------4h2h0-|-------0----0--0----0--|
---------------------------------|-----------------------|


                                                          
----------------------------------|-------2------2-------|
----------------------------------|-------3------3----2--|
----2--2----4h2h0---0-------------|--2----2------2----2--|
----2--2----------4---4h2h0-------|--0----0------0----2--|
-------0--------------------4h2h0-|-------------------0--|
----------------------------------|----------------------|


                                                                        
------------------------|-------2------5-------|--2--------------------|
------2h-3--------------|-------3------3-------|--3------2--2----------|
------2-----------------|--4----4--------------|--2------2--2----------|
------2-----------------|--4----4--------------|--4------2--2----------|
------0-----7--5--4--5--|--2----2--------------|--0------0--0----------|
------------------------|-------------------0--|-----------------15/---|


                                                                   
-------3------2------|------------------------|-------------------|
-------3------3------|------------------------|-------------------|
-------0------2------|--3--3--3--3------------|-------------------|
-------0------0------|--4--4--4--4------------|--x----------------|
-------x------0------|--4--4--4--4--4~---4~---|--x----------------|
--7----3-------------|--2--2--2--2--2~---2~---|-------------------|


                                                                
--2-----------------|---------------------|--2-----------------|
--2-----------------|--2------------------|--2-----------------|
--4-----------------|--2------------------|--4-----------------|
--4-----------------|--2------------------|--4-----------------|
--2-----------------|--0------------------|--2-----------------|
----------------3b--|-----------------0-0-|----------------3b--|


                                                                 
---------------------|--2-----------------|---------------------|
--2------------------|--2-----------------|--2------------------|
--2------------------|--4-----------------|--2------------------|
--2------------------|--4-----------------|--2------------------|
--0------------------|--2-----------------|--0------------------|
-----------------0-0-|----------------3b--|-----------------0-0-|


                                                                
--2-----------------|---------------------|--2-----------------|
--2-----------------|--2------------------|--2-----------------|
--4-----------------|--2------------------|--4-----------------|
--4-----------------|--2------------------|--4-----------------|
--2-----------------|--0------------------|--2-----------------|
----------------3b--|-----------------0-0-|----------------3b--|


                                                                 
---------------------|--2-----------------|---------------------|
--2------------------|--2-----------------|--2------------------|
--2------------------|--4-----------------|--2------------------|
--2------------------|--4-----------------|--2------------------|
--0------------------|--2-----------------|--0------------------|
-----------------0-0-|----------------3b--|-----------------0-0-|


                                                                
--2-----------------|---------------------|--2-----------------|
--2-----------------|--2------------------|--2-----------------|
--4-----------------|--2------------------|--4-----------------|
--4-----------------|--2------------------|--4-----------------|
--2-----------------|--0------------------|--2-----------------|
----------------3b--|-----------------0-0-|----------------3b--|


                                                                 
---------------------|--2-----------------|---------------------|
--2------------------|--2-----------------|--2------------------|
--2------------------|--4-----------------|--2------------------|
--2------------------|--4-----------------|--2------------------|
--0------------------|--2-----------------|--0------------------|
-----------------0-0-|----------------3b--|-----------------0-0-|


                                                                
--2-----------------|---------------------|--2-----------------|
--2-----------------|--2------------------|--2-----------------|
--4-----------------|--2------------------|--4-----------------|
--4-----------------|--2------------------|--4-----------------|
--2-----------------|--0------------------|--2-----------------|
----------------3b--|-----------------0-0-|----------------3b--|


                       
---------------------||
--2------------------||
--2------------------||
--2------------------||
--0------------------||
-----------------0-0-||
Comments