Osbourne Ozzy - You Cant Kill Rock And Roll Chords & Tabs

 

You Cant Kill Rock And Roll Chords & Tabs

Osbourne Ozzy Chords & Tabs

Version: 1 Type: Tab 0 ratings
1 star 2 stars 3 stars 4 stars 5 stars
comments

You Cant Kill Rock And Roll Tab

 This doesn't sound exactly right at first but some notes are struck 
 lightly to sort of blend in more makes them less audible when you 
 listen to the cd.


[ Tab from: http://www.guitartabs.cc/tabs/o/osbourne_ozzy/you_cant_kill_rock_and_roll_tab.html ]
 E|-----------0--------------------------------0-----|
 B|-----------0-----------0-----------------------0--|
 G|--------8-----8-----8-----------8-----8-----------|
 D|-----9-----------9-----------------9-----9--------|
 A|--9-----------------------9--9--------------------|
 E|--7-----------------------7-----------------------|




 E|-------------0--------------------0--------0------|
 B|-------------0-----0-----------------0------------|
 G|----------6-----6-----6--------6--------6---------|
 D|----------------------------7---------------------|
 A|--7----------------------7------------------------|
 E|--5----------------------5------------------------|
                                              (Repeat)



Comments