Osbourne Ozzy - Tonight Chords & Tabs

 

Tonight Chords & Tabs

Osbourne Ozzy Chords & Tabs

Version: 1 Type: Tab 0 ratings
1 star 2 stars 3 stars 4 stars 5 stars
comments

Tonight Tab

   
 Ozzy Osbourne
Tonight

   Intro
    Q=84                                          1.
    E      Esus4   E         A      Asus4    A     E      Esus4   E
   4/4
    Gtr I
||---4---4-5-(5)-5-4h5p4---|--9-----10-(10)---9--|--4---4-5-(5)-5-4h5p4---|
||o--5-5-5-7-(7)---7-----7-|-10-----10-(10)--10--|--5-5-----------------7-|
||-------------------------|--9------9--(9)---9--|--4---------------------|
||-------------------------|---------------------|------------------------|
||o------------------------|---------------------|------------------------|
||---0---------------------|---------------------|--0---------------------|
|
|   Gtr IV
||--^0---------------------|-^0------------------|-^0---------------------|
||o-^0---------------------|-^2---2--3--(3)---2--|-^0---------------------|
||--^1---------------------|-^2-2-------------2--|-^1---------------------|
||--^2---------------------|-^2------------------|-^2---------------------|
||o-^2---------------------|-^0------------------|-^2---------------------|
||--^0---------------------|---------------------|-^0---------------------|


                       2.
         Esus4          E      Esus4        E      Esus4
|--4---4-5-(5)-5-5---||--4---4-5-(5)--5---|--4---4-5-(5)----7-9-7----||
|--5-5--------------o||--5-5------------5-|--5-5---------10-------10-||
|--4-----------------||--4----------------|--4-----------------------||
|--------------------||-------------------|--------------------------||
|-------------------o||-------------------|--------------------------||
|--------------------||-------------------|--------------------------||
|
| Gtr IV
|-^0-----------------||-^0----------------|-^0-----------------------||
|-^0----------------o||-^0----------------|-^0-----------------------||
|-^1-----------------||-^1----------------|-^1-----------------------||
|-^2-----------------||-^2----------------|-^2-----------------------||
|-^2----------------o||-^2----------------|-^2-----------------------||
|-^0-----------------||-^0----------------|-^0-----------------------||


   Verse 1 and 2
    E                  Asus4A        (Aadd2E
||--------2-(2)---0--|-10----9--(9)---7--|
||o-----0-0-(0)-0-0--|-10---10-(10)--10--|
||----1--------------|--9----9--(9)---9--|
||-------------------|-------------------|
||o------------------|-------------------|
||--0----------------|-------------------|


                     A  AsusC/E
|-------2-(2)---0--|--9-10--8-(8)-----------|
|-----0-0-(0)-0-0--|-10-10--8-(8)-----------|
|---1--------------|--9--9--9-(9)-----------|
|------------------|--------------2-4-5-4-2-|
|------------------|------------------------|
|-0----------------|------------------------|


  E                  Asus4A        (Aadd2E                   A  AsusC/E
|-------2-(2)---0--|-10----9--(9)---7--|-------7-(7)-------|--9-10--8-(8)----||
|-----0-0-(0)-0-0--|-10---10-(10)--10--|-------7-(7)-9-7---|-10-10--8-(8)----||
|---1--------------|--9----9--(9)---9--|-----9-----------9-|--9--9--9-(9)----||
|------------------|-------------------|---9---------------|-----------------||
|------------------|-------------------|-------------------|-----------------||
|-0----------------|-------------------|-0-----------------|-----------------||


 Chorus
  E5                B5             C#5        B5   A5  Asus2
  Gtr II
|-----------------|--------------|---------------|--------------|
|-----------------|--------------|---------------|-----0-(0)----|
|-9------9-(9)----|-4---4-(4)----|-6---6-(6)--4--|-2---2-(2)----|
|-9------9-(9)----|-4---4-(4)----|-6---6-(6)--4--|-2---2-(2)----|
|-7--x-x-7-(7)----|-2---2-(2)----|-4---4-(4)--2--|-0---0-(0)----|
|-0--x-x----------|--------------|---------------|--------------|


  E5             B5             C#5        B5   A5  Asus2
|--------------|--------------|---------------|--------------||
|--------------|--------------|---------------|-----0-(0)----||
|-9---9-(9)----|-4---4-(4)----|-6---6-(6)--4--|-2---2-(2)----||
|-9---9-(9)----|-4---4-(4)----|-6---6-(6)--4--|-2---2-(2)----||
|-7---7-(7)----|-2---2-(2)----|-4---4-(4)--2--|-0---0-(0)----||
|--------------|--------------|---------------|--------------||


 Re - Intro
  1.
  E        Esus4        A      Asus4    A     E        Esus4
  Gtr I
|--4----4--5-(5)-0-5--|--9-----10-(10)---9--|--0---------------0---|
|--5-5-(5)-------5-5--|-10-----10-(10)--10--|--------0-------0---0-|
|---------------------|--9------9--(9)---9--|------1---2-(2)-------|
|---------------------|---------------------|----2-----------------|
|---------------------|---------------------|----------------------|
|--0------------------|---------------------|--0-------------------|
|
| Gtr IV
|-^0------------------|-^0------------------|-^0-------------------|
|-^0------------------|-^2---2--3--(3)---2--|-^0-------------------|
|-^1------------------|-^2-2-------------2--|-^1-------------------|
|-^2------------------|-^2------------------|-^2-------------------|
|-^2------------------|-^0------------------|-^2-------------------|
|-^0------------------|---------------------|-^0-------------------|


                         Guitar Solo
                         2.
  E        Esus4          E5          Esus4         E5
                          Gtr II
|--0-------------------||---------------------------------------------|
|--------0------------o||-------------10------------------------------|
|------1---2-(2)--2-2--||-9------------9-------------9----------------|
|----2------------2-2--||-9------------9-------------9----------------|
|---------------------o||-7------------7-------------7----------------|
|--0-------------------||---------------------------------------------|
|
| Gtr IV                    Gtr III
|                                      ~~
|-^0-------------------||---------------------16-17-19p17p16-19p17p16-|
|-^0------------------o||-------------17-(17)-------------------------|
|-^1-------------------||----------16---------------------------------|
|-^2-------------------||----17-18------------------------------------|
|-^2------------------o||---------------------------------------------|
|-^0-------------------||---------------------------------------------|


  A5           Asus4         A5
|-----------------------------------------|
|---------------3-------------------------|
|--2------------2-------------2-----------|
|--2------------2-------------2-----------|
|--0------------0-------------0-----------|
|-----------------------------------------|
|
|               ~~
|-19b21--19b21-19-(19)-17-19-17-17p16-----|
|-------------------------------------17--|
|-----------------------------------------|
|-----------------------------------------|
|-----------------------------------------|
|-----------------------------------------|


  E5
|--------------------------------------|
|--------------------------------------|
|--9-----------------------------------|
|--9-----------------------------------|
|--7-----------------------------------|
|--------------------------------------|
|
|-16------------14-(14)--(14)----------|
|----17------------------------9-12b14-|
|-------16-----------------------------|
|----------18-x------------------------|
|--------------------------------------|
|--------------------------------------|


  A5             Asus4          A5
|-----------------------------------------|
|----------------3------------------------|
|-2--------------2----------------2-------|
|-2--------------2----------------2-------|
|-0--------------0----------------0-------|
|-----------------------------------------|
|
|-9-12p9----9-----------------------------|
|--------12---12p9------------------------|
|------------------11b13==(11)--(11)b14===|
|-----------------------------------------|
|-----------------------------------------|
|-----------------------------------------|


  E5               Esus4     E5
|-------------------------------------------|
|------------------10-----------------------|
|---9---------------9---------9-------------|
|---9---------------9---------9-------------|
|---7---------------7---------7-------------|
|-------------------------------------------|
|
|                         ~~
|----------------------------16-17-19p17p16-|
|---------------------12-17-----------------|
|-(11)-(11)r9-9-12S13-----------------------|
|-------------------------------------------|
|-------------------------------------------|
|-------------------------------------------|


  C5                          C#m
|---------------------------|--4-----------------------|
|---------------------------|--5-----------------------|
|--5------------------------|--6-----------------------|
|--5------------------------|--6-----------------------|
|--3------------------------|--4-----------------------|
|---------------------------|--------------------------|
|
|  ~~            ~~~~          ~~~~~                ~~
|-15------------------------|--------------------------|
|-----17-15-17-(17)---------|-17b19--------------------|
|------------------------16-|----------18-16----18-16--|
|---------------------18----|----------------18--------|
|---------------------------|--------------------------|
|---------------------------|--------------------------|


  A5
|-------------------------------------------------|
|-------------------------------------------------|
|--2----------------------------------------------|
|--2----------------------------------------------|
|--0----------------------------------------------|
|-------------------------------------------------|
|
|-------------------------------------------------|
|-------------------------------------------------|
|-------------------------------------------------|
|-------------------------------------------------|
|-------------------------------------------------|
|-------------------------------------------------|
|
| Gtr III
|-------------------------16----16-17-16-17-19S21-|
|----16-17-16-17-19-17-19----19-------------------|
|-18----------------------------------------------|
|-------------------------------------------------|
|-------------------------------------------------|
|-------------------------------------------------|


  E      Esus4   E         A      Asus4    A
  Gtr I
|--4---4-5-(5)-5-4h5p4---|--9-----10-(10)---9--------|
|--5-5-5-7-(7)---7-----7-|-10-----10-(10)--10--------|
|------------------------|--9------9--(9)---9--------|
|------------------------|---------------------------|
|------------------------|---------------------------|
|--0---------------------|---------------------------|
|
| Gtr IV
|-^0---------------------|-^0------------------------|
|-^0---------------------|-^2---2--3--(3)---2--------|
|-^1---------------------|-^2-2-------------2--------|
|-^2---------------------|-^2------------------------|
|-^2---------------------|-^0------------------------|
|-^0---------------------|---------------------------|
|
|  ~~
|-19---------------------|---------------------------|
|------------------------|---------------------------|
|------------------------|--------------------13-----|
|------------------------|-----------------------14--|
|------------------------|---------------------------|
|------------------------|---------------------------|


                                        Bridge
  E      Esus4   E         E5      D5    C5         G5
                           Gtr II
|--4---4-5-(5)-5-4h5p4---|------------||----------|--------------|
|--5-5-5-7-(7)---7-----7-|------------||----------|--------------|
|------------------------|--9------7--||-5--------|-12------12---|
|------------------------|--9------7--||-5--------|-12------12---|
|------------------------|--7------5--||-3--------|-10------10---|
|--0---------------------|------------||----------|--------------|
|
|                           ~~
|------------------------|-16---------||----------|--------------|
|------------------------|------------||----------|--------------|
|------------------------|---------7--||----------|--------------|
|------------------------|---------7--||----------|--------------|
|-14---------------------|---------5--||----------|--------------|
|------------------------|------------||----------|--------------|


  Eb5           Bb                     G5
|-------------|----------------------|------------|
|-------------|----------------------|------------|
|-8-----------|-------3-3-(3)-----3--|----3----3--|
|-8-----------|-------3-3-(3)-----3--|----5----5--|
|-6-------5p3-|---3h5------x--3h5----|-5--5----5--|
|-------------|-6--------------------|-3--3----3--|


  F5             Dm             C5
|----1---------|--------------|-----------------||
|----1---6-----|----6------6--|-----------------||
|----2---5-----|----7------7--|-----------------||
|-3--------5S3-|-7--7------7--|-5-5-5-5-5-5-5-5-||
|-3------------|-5-----x-x----|-3-3-3-3-3-3-3-3-||
|-1------------|--------------|-----------------||


   Interlude
                                                  1.
    E      Esus4   E         A  Asus4              E      Esus4
    Gtr I
||---4---4-5-(5)-5-4h5p4---|--9-----10-(10)---9--|--4---4-5-(5)-5-4h5p4---|
||o--5-5-5-7-(7)---7-----7-|-10-----10-(10)--10--|--5-5-----------------7-|
||-------------------------|--9------9--(9)---9--|--4---------------------|
||-------------------------|---------------------|------------------------|
||o------------------------|---------------------|------------------------|
||---0---------------------|---------------------|--0---------------------|
|
|   Gtr IV
||--^0---------------------|-^0------------------|-^0---------------------|
||o-^0---------------------|-^2---2--3--(3)---2--|-^0---------------------|
||--^1---------------------|-^2-2-------------2--|-^1---------------------|
||--^2---------------------|-^2------------------|-^2---------------------|
||o-^2---------------------|-^0------------------|-^2---------------------|
||--^0---------------------|---------------------|-^0---------------------|


                       2.
  E            Esus4    E      Esus4        E      Esus4
|--4---4-5-(5)-5-5---||--4---4-5-(5)--5---|--4---4-5-(5)----7-9-7----||
|--5-5--------------o||--5-5------------5-|--5-5---------10-------10-||
|--4-----------------||--4----------------|--4-----------------------||
|--------------------||-------------------|--------------------------||
|-------------------o||-------------------|--------------------------||
|--0-----------------||-------------------|--------------------------||
|
| Gtr IV
|-^0-----------------||-^0----------------|-^0-----------------------||
|-^0----------------o||-^0----------------|-^0-----------------------||
|-^1-----------------||-^1----------------|-^1-----------------------||
|-^2-----------------||-^2----------------|-^2-----------------------||
|-^2----------------o||-^2----------------|-^2-----------------------||
|-^0-----------------||-^0----------------|-^0-----------------------||


 Verse 3
  E                  Asus4A        (Aadd2E
|-------2-(2)---0--|-10----9--(9)---7--|
|-----0-0-(0)-0-0--|-10---10-(10)--10--|
|---1--------------|--9----9--(9)---9--|
|------------------|-------------------|
|------------------|-------------------|
|-0----------------|-------------------|


                     A  AsusC/E
|-------2-(2)---0--|--9-10--8-(8)------------|
|-----0-0-(0)-0-0--|-10-10--8-(8)------------|
|---1--------------|--9--9--9-(9)------------|
|------------------|--------------2-4-5-4-2--|
|------------------|-------------------------|
|-0----------------|-------------------------|


  E                 Asus4A        (Aadd2E                   A  AsusC/E
|-------2-(2)--0--|-10----9--(9)---7--|-------7-(7)-------|--9-10--8-(8)----||
|-----0-0-(0)--0--|-10---10-(10)--10--|-------7-(7)-9-7---|-10-10--8-(8)----||
|---1-------------|--9----9--(9)---9--|-----9-----------9-|--9--9--9-(9)----||
|-----------------|-------------------|---9---------------|-----------------||
|-----------------|-------------------|-------------------|-----------------||
|-0---------------|-------------------|-0-----------------|-----------------||


 Chorus
  E5                B5             C#5        B5   A5  Asus2
  Gtr II
|-----------------|--------------|---------------|--------------|
|-----------------|--------------|---------------|-----0-(0)----|
|-9------9-(9)----|-4---4-(4)----|-6---6-(6)--4--|-2---2-(2)----|
|-9------9-(9)----|-4---4-(4)----|-6---6-(6)--4--|-2---2-(2)----|
|-7--x-x-7-(7)----|-2---2-(2)----|-4---4-(4)--2--|-0---0-(0)----|
|-0--x-x----------|--------------|---------------|--------------|


  E5             B5             C#5        B5   A5
|--------------|--------------|---------------|---------------||
|--------------|--------------|---------------|---------------||
|-9---9-(9)----|-4---4-(4)----|-6---6-(6)--4--|-2---2-(2)-----||
|-9---9-(9)----|-4---4-(4)----|-6---6-(6)--4--|-2---2-(2)-----||
|-7---7-(7)----|-2---2-(2)----|-4---4-(4)--2--|-0---0-(0)-----||
|--------------|--------------|---------------|---------------||


 Outro
  E5
  Gtr II
|-----------------------------------------------------|
|-----------------------------------------------------|
|-9---------------------------------------------------|
|-9---------------------------------------------------|
|-7---------------------------------------------------|
|-----------------------------------------------------|
|
| Gtr III
|-7p0-12p0-7p0-12p0-7p0-7p0-12p0-7p0-7p0-12p0-7p0-7p0-|
|-----------------------------------------------------|
|-----------------------------------------------------|
|-----------------------------------------------------|
|-----------------------------------------------------|
|-----------------------------------------------------|


  C5
|-----------------------------------------------------|
|-----------------------------------------------------|
|--5--------------------------------------------------|
|--5--------------------------------------------------|
|--3--------------------------------------------------|
|-----------------------------------------------------|
|
|-12p0-7p0-7p0-12p0-7p0-7p0-12p0-7p0-7p0-12p0-7p0-7p0-|
|-----------------------------------------------------|
|-----------------------------------------------------|
|-----------------------------------------------------|
|-----------------------------------------------------|
|-----------------------------------------------------|

[ Tab from: http://www.guitartabs.cc/tabs/o/osbourne_ozzy/tonight_tab.html ]
  C#m
|--4--------------------------------------------------|
|--5--------------------------------------------------|
|--6--------------------------------------------------|
|--6--------------------------------------------------|
|--4--------------------------------------------------|
|-----------------------------------------------------|
|
|-12p0-7p0-7p0-12p0-7p0-7p0-12p0-7p0-7p0-12p0-7p0-7p0-|
|-----------------------------------------------------|
|-----------------------------------------------------|
|-----------------------------------------------------|
|-----------------------------------------------------|
|-----------------------------------------------------|


  A5
|---------------------------------------------||
|---------------------------------------------||
|--2------------------------------------------||
|--2------------------------------------------||
|--0------------------------------------------||
|---------------------------------------------||
|
|-12p0-7p0-7p0-12p0-7p0-7p0-12p0-7p0-7p0------||
|---------------------------------------------||
|---------------------------------------------||
|---------------------------------------------||
|----------------------------------------14\--||
|---------------------------------------------||


  E5
|--------------------------------|
|--------------------------------|
|-9------------------------------|
|-9------------------------------|
|-7------------------------------|
|--------------------------------|
|
|                 ~~~
|--------------------------------|
|--------------------------------|
|--------------------------------|
|-7pb8==(7)rp5--------------7b8==|
|--------------7-(7)----(7)------|
|--------------------------------|


  C5                       C#m
|------------------------|-4----------------------------|
|------------------------|-5----------------------------|
|--5---------------------|-6----------------------------|
|--5---------------------|-6----------------------------|
|--3---------------------|-4----------------------------|
|------------------------|------------------------------|
|
|                    ~~~                    ~~~
|------------------------|------------------------------|
|------------------------|------------------------------|
|------------------------|------------------------------|
|-(7)----(7)-7rp5--------|---4-5---4-5-5S7-(7)--7-5-4-5-|
|-----------------7-(7)--|-7-----7----------------------|
|------------------------|------------------------------|


  A                     E5                 C5
|--0------------------|------------------|--------------------------------|
|--2------------------|------------------|--------------------------------|
|--2------------------|--9---------------|-5------------------------------|
|--2------------------|--9---------------|-5------------------------------|
|--0------------------|--7---------------|-3------------------------------|
|---------------------|------------------|--------------------------------|
|
|                              T    T        T
|---------------------|------------------|-----------------------------15-|
|---------------------|------------------|--------------------15-15-17----|
|----------------2b4==|=(2)----6p2-10rp2p|=0-9p0-(0)----14h16-------------|
|-(5)------(5)\-------|------------------|--------------------------------|
|---------------------|------------------|--------------------------------|
|---------------------|------------------|--------------------------------|


  C#m
|--4-----------------|---0------------------------|
|--5-----------------|---2------------------------|
|--6-----------------|---2------------------------|
|--6-----------------|---2------------------------|
|--4-----------------|---0------------------------|
|--------------------|----------------------------|
|
|  ~~~~~                          ~~~~~~~~~~~
|--------------------|-------22-------------------|
|-17b20-------22b24==|=(22)------22pb24-(22)------|
|--------------------|----------------------------|
|--------------------|----------------------------|
|--------------------|-----------------------17\--|
|--------------------|----------------------------|


  E5                          C5
|---------------------------|-------------------------|
|---------------------------|-------------------------|
|-9-------------------------|--5----------------------|
|-9-------------------------|--5----------------------|
|-7-------------------------|--3----------------------|
|---------------------------|-------------------------|
|
|        ~                             ~~~~~~
|---------------------------|-------------------------|
|-8b8.5-----------8b10==(8)r|=(8)-------------10b11===|
|--------9----(9)-----------|------9-8-9-(9)----------|
|---------------------------|-------------------------|
|---------------------------|-------------------------|
|---------------------------|-------------------------|


  C#m                           A
|---4-------------------------|---0-------------------|
|---5-------------------------|---2-------------------|
|---6-------------------------|---2-------------------|
|---6-------------------------|---2-------------------|
|---4-------------------------|---0-------------------|
|-----------------------------|-----------------------|
|
|               ~
|-----------------------------|-----------------------|
|-(10)r(10)p8----------12b14==|=(12)--(12)r=(12)------|
|-------------9-9----x--------|------------------x\---|
|-----------------------------|-----------------------|
|-----------------------------|-----------------------|
|-----------------------------|-----------------------|


  E5
|-------------------------------------------------------------------------------|
|-------------------------------------------------------------------------------|
|--9----------------------------------------------------------------------------|
|--9----------------------------------------------------------------------------|
|--7----------------------------------------------------------------------------|
|-------------------------------------------------------------------------------|
|
|  ~~~~~
|-------12----12-15p12----12----------------12-------------------------------15-|
|-15b17----15----------15----15p12-------12----15-12----12-------------15-17----|
|----------------------------------14b16-------------15----15-12-14S16----------|
|-------------------------------------------------------------------------------|
|-------------------------------------------------------------------------------|
|-------------------------------------------------------------------------------|


  C5
|---------------------------------------------|
|---------------------------------------------|
|--5------------------------------------------|
|--5------------------------------------------|
|--3------------------------------------------|
|---------------------------------------------|
|
|                       ~~~~~
|-18p17p15----15-------17b18----(17)----------|
|----------17----17p15------------------------|
|------------------------------------x-14b16==|
|---------------------------------------------|
|---------------------------------------------|
|---------------------------------------------|


  C#m
|---4---------------------------------------------------|
|---5---------------------------------------------------|
|---6---------------------------------------------------|
|---6---------------------------------------------------|
|---4---------------------------------------------------|
|-------------------------------------------------------|
|
|       T                   T
|-------------------------------------------------------|
|-------------------15b17==20p15-15r(15)-12h15p12h15p12-|
|-(14)-19-14-14rp12-------------------------------------|
|-------------------------------------------------------|
|-------------------------------------------------------|
|-------------------------------------------------------|


  A
|--0-----------------------------------------------------------------|
|--2-----------------------------------------------------------------|
|--2-----------------------------------------------------------------|
|--2-----------------------------------------------------------------|
|--0-----------------------------------------------------------------|
|--------------------------------------------------------------------|
|
|--------------------------------------------------------------------|
|-15p12h15p12h15p12h15p12S14p11h14p11-13p10h13p10h12p9-12-9-11-(11)\-|
|--------------------------------------------------------------------|
|--------------------------------------------------------------------|
|--------------------------------------------------------------------|
|--------------------------------------------------------------------|


  E5
|-------------------------|
|-------------------------|
|-9-----------------------|
|-9-----------------------|
|-7-----------------------|
|-------------------------|
|
|-------------------------|
|-------------------------|
|-4b6--(4)b7===(4)--(4)---|
|-------------------------|
|-------------------------|
|-------------------------|


  C5                                 C#m
|----------------------------------|-4-------------------------------------|
|----------------------------------|-5-------------------------------------|
|--5-------------------------------|-6-------------------------------------|
|--5-------------------------------|-6-------------------------------------|
|--3-------------------------------|-4-------------------------------------|
|----------------------------------|---------------------------------------|
|
|                             ~
|----------------------------------|------------------------------------12-|
|----------------------------------|---------------------------------12----|
|-(4)-(4)r(4)-(4)------------------|------------------------------14-------|
|-----------------7b8==(7)rp5------|-2pb4==(2)r(2)-------------------------|
|-----------------------------7----|---------------2-2--(2)--(2)-----------|
|----------------------------------|---------------------------------------|


  A
|--0----------------------------------------------------------------|
|--2----------------------------------------------------------------|
|--2----------------------------------------------------------------|
|--2----------------------------------------------------------------|
|--0----------------------------------------------------------------|
|-------------------------------------------------------------------|
|
|-------------12-------------15-17-18p17p15----15-------------22b24-|
|-15p12----12----15p12-15S17----------------17----17p15S17S19-------|
|-------14----------------------------------------------------------|
|-------------------------------------------------------------------|
|-------------------------------------------------------------------|
|-------------------------------------------------------------------|


  E5
|----------------------------------------------|
|----------------------------------------------|
|---9------------------------------------------|
|---9------------------------------------------|
|---7------------------------------------------|
|----------------------------------------------|
|
|   ~~~~       ~~~~             ~~~~~~~~
|-(22)-22b24-(22)--(22)-22b24-(22)-(22)-22b24--|
|----------------------------------------------|
|----------------------------------------------|
|----------------------------------------------|
|----------------------------------------------|
|----------------------------------------------|


  C5
|------------------------------------------|
|------------------------------------------|
|---5--------------------------------------|
|---5--------------------------------------|
|---3--------------------------------------|
|------------------------------------------|
|
|   ~~~~
|-(22)--(22)--(22)-19-20-19-17-19h20p19p17-|
|------------------------------------------|
|------------------------------------------|
|------------------------------------------|
|------------------------------------------|
|------------------------------------------|


  C#m
|--4---------------------------------------------------------------------|
|--5---------------------------------------------------------------------|
|--6---------------------------------------------------------------------|
|--6---------------------------------------------------------------------|
|--4---------------------------------------------------------------------|
|------------------------------------------------------------------------|
|
|                                                   ~~~~       ~~~~
|-19-20p19-22p19-20p19----19---------------------------------------------|
|----------------------22----22p20p19------------------------------------|
|-------------------------------------21p19-21b23-(21)-21b23-(21)-22b24==|
|------------------------------------------------------------------------|
|------------------------------------------------------------------------|
|------------------------------------------------------------------------|


  A
|---0----------------------------------------------------------|
|---2----------------------------------------------------------|
|---2----------------------------------------------------------|
|---2----------------------------------------------------------|
|---0----------------------------------------------------------|
|--------------------------------------------------------------|
|
|--------------------------------------------------------------|
|-------------------------------------------------------10b11==|
|-(22)r21--22b25==(22)r22b25==(22)r22b25==(22)r=(22)-x---------|
|--------------------------------------------------------------|
|--------------------------------------------------------------|
|--------------------------------------------------------------|


  E5                                    C5
|-------------------------------------|---------|
|-------------------------------------|---------|
|---9---------------------------------|---5-----|
|---9---------------------------------|---5-----|
|---7---------------------------------|---3-----|
|-------------------------------------|---------|
|
|                  ~~~~~~
|-------------------------------------|---------|
|-(10)-(10)r(10)p8-------------12b15==|=(12)----|
|------------------9-(9)----9---------|---------|
|-------------------------------------|---------|
|-------------------------------------|---------|
|-------------------------------------|---------|


  C#m                                  A
|--4---------------------------------|-0--------------------------------------|
|--5---------------------------------|-2--------------------------------------|
|--6---------------------------------|-2--------------------------------------|
|--6---------------------------------|-2--------------------------------------|
|--4---------------------------------|-0--------------------------------------|
|------------------------------------|----------------------------------------|
|
|  T
|------------------------------------|--------------------0-3p2p0-------------|
|-20p12r10-12-8-10-7h8p7---7---------|----------------------------3p2p0-------|
|------------------------9---9p7\----|-2-4-2h4p2h4p2h4p2----------------3p2p0-|
|------------------------------------|----------------------------------------|
|------------------------------------|----------------------------------------|
|------------------------------------|----------------------------------------|


  E5                       C5                      C#m
|------------------------|-----------------------|-4--------------------------|
|------------------------|-----------------------|-5--------------------------|
|-9----------------------|--5--------------------|-6--------------------------|
|-9----------------------|--5--------------------|-6--------------------------|
|-7----------------------|--3--------------------|-4--------------------------|
|------------------------|-----------------------|----------------------------|
|
|        ~~~~~~                   ~                     ~~~
|------------------------|-----------------------|----------------------------|
|------------------------|-----------------------|------------------4---10-8--|
|-0------------------2b3r|=(2)p=0----------------|------------4-5-7---5-------|
|----2p0-2-(2)--(2)------|--------2-(2)--2-4-5-4-|-5S7-(7)--7-----------------|
|------------------------|-----------------------|----------------------------|
|------------------------|-----------------------|----------------------------|


  A
|-0-------------------------------------------------|
|-2-------------------------------------------------|
|-2-------------------------------------------------|
|-2-------------------------------------------------|
|-0-------------------------------------------------|
|---------------------------------------------------|
|
|                               ~~
|------------------------------------12----------12-|
|-7---7-8-7h8p7---7-8-7h8p7---7---------15p12-15----|
|---9-----------9-----------9---9S14----------------|
|---------------------------------------------------|
|---------------------------------------------------|
|---------------------------------------------------|


  E5
|-------------------------------------------------------------------------------------------------|
|-------------------------------------------------------------------------------------------------|
|--9----------------------------------------------------------------------------------------------|
|--9----------------------------------------------------------------------------------------------|
|--7----------------------------------------------------------------------------------------------|
|-------------------------------------------------------------------------------------------------|
|
|-15p12----12-15p12----12-15p12----12-15p12----12-15p12----12-15p12----12----------12-------15-17-|
|-------15----------15----------15----------15----------15----------15----------12----15S17-------|
|-------------------------------------------------------------------------14b16-------------------|
|-------------------------------------------------------------------------------------------------|
|-------------------------------------------------------------------------------------------------|
|-------------------------------------------------------------------------------------------------|


  C5
|-------------------------------------------------------*|
|-------------------------------------------------------*|
|--5----------------------------------------------------*|
|--5----------------------------------------------------*|
|--3----------------------------------------------------*|
|-------------------------------------------------------*|
|
|-18p17p15----15----------15----------15-------17b19----*|
|----------17----17p15-17----17p15-17----17p15----------*|
|-------------------------------------------------------*|
|-------------------------------------------------------*|
|-------------------------------------------------------*|
|-------------------------------------------------------*|



Comments