Osbourne Ozzy - The Ultimate Sin Chords & Tabs

 

The Ultimate Sin Chords & Tabs

Osbourne Ozzy Chords & Tabs

Version: 1 Type: Bass Tab 0 ratings
1 star 2 stars 3 stars 4 stars 5 stars
comments

The Ultimate Sin Bass Tab

=== Crankster's Ozzy Page
=== http://crankster.cjb.net
=== crankster@mailexcite.com

Transcriber - Ryan Silke 

The Ultimate Sin 
Ozzy Osbourne- The Ultimate Sin

 All songs on "The Ultimate Sin" are not perfectly tuned to Eb 
 being somewhere between Eb and E, so adjust until it sounds good.

 (The bass is real deep in this song, almost as if the E string is 
 dropped to a Db. But standard tuning applies as shown.)

 Intro
 Gb---------|------------------------
 Db---------|-------------8-7--------
 Ab----R----|--5-7-8--7-8-----8-7-6--
 Eb---------|------------------------

 Gb-----------------------------------------------------------
 Db------------------------------------------------8-7--------
 Ab--5--5--5--5-5-5--5--5--5-5-5--5--5--5-5-5--7-8-----8-7-6--
 Eb-----------------------------------------------------------

 Verse
 Gb---------------------------------------5--7------------
 Db-------------------------------------------------------
 Ab--5--5--5--5--5--5--5--5--5--5--5--5-5------5-------3--
 Eb----------------------------------------------1-3-5----

 Gb-------------------------------------------7------------
 Db---------------------------------------5h7-----5-7------
 Ab--5--5--5--5--5--5--5--5--5--5--5--5-5-------5-----5-3--
 Eb--------------------------------------------------------

 Pre-Chorus x 3
 Gb----------------------------
 Db----------------------------
 Ab--1---3---5---7---8--10--\--
 Eb----------------------------
[ Tab from: http://www.guitartabs.cc/tabs/o/osbourne_ozzy/the_ultimate_sin_btab.html ]
 Chorus One x 2
 Gb-----------------------------------------------------------
 Db------------------------------------------------8-7--------
 Ab--5--5--5--5-5-5--5--5--5-5-5--5--5--5-5-5--7-8-----8-7-5--
 Eb-----------------------------------------------------------

 repeat Verse
 repeat Pre-Chorus x 3

 Chorus Two x 2
 Gb-----------------------------------------------------------
 Db-----------------------------------------------------------
 Ab--5-------5-\--5-------5-----5-------5-\----8------7-------
 Eb----1-3-5--------1-3-5----1----1-3-5----------8--8---7--7--

 Solo
 Gb-------------------------------------------------------------------
 Db-------------------------------------------------------------------
 Ab--0-0-0-0-0-0-0-0-2-2-2-2-2-2-2-2-4-4-4-4-4-4-4-4-2-2-2-2-2-2-2-2--
 Eb-------------------------------------------------------------------

 Gb-------------------------------------------------------------------
 Db-------------------------------------------------------------------
 Ab-------------------------------------------------------------------
 Eb--3-3-3-3-3-3-3-3-5-5-5-5-5-5-5-5-6-6-6-6-6-6-6-6-8-8-8-8-8-8-8-8--

 repeat Intro
 repeat Verse
 repeat Pre-Chorus x 3
 repeat Chorus 1

 Outro
 Gb-----------------------------------------------------------
 Db------------------------------------------------8-7--------
 Ab--5--5--5--5-5-5--5--5--5-5-5--5--5--5-5-5--7-8-----8-7-5--
 Eb-----------------------------------------------------------

 Outro Fill x 3
 Gb-----------------
 Db------8-7--------
 Ab--7-8-----8-7-5--
 Eb-----------------



Comments