Osbourne Ozzy - Symptom Of The Universe Chords & Tabs

 

Symptom Of The Universe Chords & Tabs

Osbourne Ozzy Chords & Tabs

Version: 1 Type: Tab 0 ratings
1 star 2 stars 3 stars 4 stars 5 stars
comments

Symptom Of The Universe Tab

Artist: Black Sabbath
Song: Symptom of the universe
Tabbed by: John Leadman


Tune down 1 1/2 steps (C#)
To clear up any confusion, this song is played in the E position, 
but the guitar is tuned down 1/2 step, so the song is based in F#


|----------------------------------------------------------
|----------------------------------------------------------
|----------------------------------4-----------------------
|---------------3------------------2-3---------------------
|---------------1--------------------1---------------------
|-0-0-0-0-0-0-0------0-0-0-0-0-0-0-------------------------

|----------------------------------------------------------
|----------------------------------------------------------
|----------------------------------------------------------
|--7-------------------------------------------------------
|--5---------8-----------7---------------------------------
|------------6-----------5---------------------------------

|----------------------------------------------------------------
|----------------------------------------------------------------
|----------------------------------------------------------------
|---4-5-2-4---2-----2---------------4-5-2-4---2-----2------------
|-----------5---4-5---5-4-2-----------------5---4-5---5-4-2------
|-2-------------------------5-----2-------------------------5----

|--------------------------------------------------------------
|--------------------------------------------------------------
|--------------------------------------------------------------
|---------------------------1h2p1---2h4-4h5p4------------------
|-2--2-2-2-2-2--2-2-2-2-2h4-------2-----------5-2--2-2-2-2-2---
|--------------------------------------------------------------

|--------------------------------------------------------------
|--------------------------------------------------------------
|--4-----------------------------------------------------------
|--4--slowly move hand up fretboard, imitating a slideing sound
|--2-----------------------------------------------------------
|--------------------------------------------------------------
[ Tab from: http://www.guitartabs.cc/tabs/o/osbourne_ozzy/symptom_of_the_universe_tab.html ]
|---------------------------------------------------------------------------
|-----------2-------5-------4-------4-------------2-------5-------4-------4-
|-------------2---------------4---------------------2---------------4-------
|-------4-------4-------4-------4-------------4-------4-------4-------4-----
|---------------------------------------------------------------------------
|-1/2-----------------------------------1/2---------------------------------

|--4---4---------------------------------------------
|----7----5-7-5-4-5---4-5-2--------------------------
|-------------------6-------4---2-1---2---1----------
|---------------------------------------------4------
|----------------------------------------------------
|----------------------------------------------------

|----5---4-------5---4----------5---4------2--------------
|----------7-----------7--------------7--2---5-4-2--------
|--6---6-------6---6----------6---6----------------4p2----
|------------------------------------------------------4--
|---------------------------------------------------------
|---------------------------------------------------------

|----------------------------------------------------
|----------------------------------------------------
|--1h2p1---1---------1-2---1-2---1-2-1---1-----------
|--------4---2-4---4-----4-----4-------4---4-2-------
|----------------------------------------------4-----
|----------------------------------------------------

|----------------------------------------------------------------------
|----------------------------------------------------------------------
|------------1------------------------------------1--------/6-4-2-1----
|------1h2-4---4---2-1-2-4-2-4-4------------1h2-4---4--2-4----------4--
|--4------------------------------------4------------------------------
|----------------------------------------------------------------------

|------4-----4-5-454---4---------------------------
|----7---5-7---------7-----7-454-------------------
|--6---------------------6-------6-----------------
|--------------------------------------------------
|--------------------------------------------------
|--------------------------------------------------
Comments