Osbourne Ozzy - Sucide Solution (live) Chords & Tabs

 

Sucide Solution (live) Chords & Tabs

Osbourne Ozzy Chords & Tabs

Version: 1 Type: Tab 0 ratings
1 star 2 stars 3 stars 4 stars 5 stars
comments

Sucide Solution (live) Tab

   
Ozzy Osbourne
Sucide Solution (live)

 
  N.C.         A5    C5/G5A5
 
  Gtr I
                                              ~
|------------|-------------------|----------------|
|------------|-------------------|----------------|
|------------|-2-----5S=0-2------|-5S=0-2-(2)-----|
|------------|-2-----5S=0-2------|-5S=0-2-(2)-----|
|------------|-0-x-x---------x-x-|----------------|
|-----20\----|-------------------|------------3---|


  A5 C5/G5A5       C5/G5A5
                               
|----------------|-------------------------------------||
|----------------|-------------------------------------||
|-2--5S=0-2------|-5S=0-2-(2)-[5]----([5])-([5])-([5])-||
|-2--5S=0-2------|-5S=0-2-(2)--------------------------||
|-0----------0-0-|-------------------------------------||
|----------------|-------------------------------------||


 Verse 1
      C5/G5A5       C5/G5A5
|-----------------|-----------------------|
|-----------------|-----------------------|
|-2---5S=0-2------|-5S=0-2-(2)-2----------|
|-2---5S=0-2------|-5S=0-2-(2)-2-0h1p0----|
|---0---------0-0-|--------------------3--|
|-----------------|-----------------------|


  A5  C5/G5A5           C5/G5A5              A5  C5/G5A5
|---------------------|--------------------|------------------|
|---------------------|--------------------|------------------|
|-----5S=0-2----------|-5S=0-2-------------|-2\--5S=0-2-------|
|-2---5S=0-2----0h2p0-|-5S=0-2-0-1-0h1p0---|-----5S=0-2-------|
|-0-x---------0-------|------------------3-|-------------x-x--|
|---------------------|--------------------|------------------|


  C5/G5A5
              
|-------------------------------------|
|-------------------------------------|
|-5S=0-2-(2)-[2]----([2])-([2])-([2])-|
|-5S=0-2-(2)--------------------------|
|-------------------------------------|
|-------------------------------------|


                                     Break
  A5  C5/G5A5       E5D5C5G5          A5  C5/A  D5
                                                ~
|-----------------|----------------||----------------|
|-----------------|-------3-(3)----||----------------|
|-2-2-5--0-2------|-------0-(0)----||-----5---5S7----|
|-2-2-5--0-2------|-9-7-5-0-(0)----||-----5---5S7----|
|-0-0---------x-x-|-7-5-3----------||-------x--------|
|-----------------|-------3-(3)----||-3-5------------|


  G5     A5                  C5/A  D5
                ~~~                ~
|--------------------|--------------------|
|--------------------|--------------------|
|-0------2-(2)-[2]---|-2-----5---5-7------|
|-0------2-(2)-------|-2-----5---5-7------|
|--------0-(0)-------|-0-0-0---x------x-x-|
|----3b4-------------|--------------------|


                      Verse 2
  G5    A5             A5  C5/G5A5
|-------------------||------------------|
|-------------------||------------------|
|-0-----2-(2)-------||-2---5S=0-2-------|
|-0-----2-(2)-------||-2---5S=0-2-------|
|-------0-(0)-17\---||-0-x---------0-0--|
|---x-x-------------||------------------|


  C5/G5A5                                       C5/G5A5       C5/G5A5C5B5C5B5
|-----------------------------------------|-----------------|--------8-7-8-7-|
|-----------------------------------------|-----------------|--------8-7-8-7-|
|-5S=0-2-(2)------------------------------|-----5S=0-2------|-5S=0-2-5-4-5-4-|
|-5S=0-2-(2)-----------14-16-17-16-17-19\-|-----5S=0-2------|-5S=0-2---------|
|------------/14-15-17--------------------|-0-x---------x-x-|----------------|
|-----------------------------------------|-----------------|----------------|


  A5  C5/G5A5      C5/G5A5
|----------------|------------------------|
|----------------|------------------------|
|-2---5S=0-2-2---|-5S=0-2-4h5p4-----------|
|-2---5S=0-2-2---|-5S=0-2-------7-5-------|
|-0-x----------x-|------------------7-5-3-|
|----------------|------------------------|


      C5/G5A5      E5D5C5G5
|----------------|-------------------||
|----------------|-------3-(3)-------||
|-2---5S=0-2-2-2-|-------0-(0)-------||
|-2---5S=0-2-2-2-|-9-7-5-0-(0)-------||
|-0-x--------0-0-|-7-5-3-------------||
|----------------|-------3-(3)--19\--||


 Chorus
  B5        C#5     D5     C#5       B5        C#5     D5     C#5   BA5
                           ~~~~~~
|-----------------|----------------|-----------------|-------------------|
|-----------------|----------------|-----------------|-------------------|
|-----4-----6-----|-7----7-6-(6)---|-----4-----6-----|-7----7-6-(6)------|
|-----4-----6-----|-7----7-6-(6)---|-----4-----6-----|-7----7-6-(6)------|
|-----------------|----------------|-----------------|----------------0--|
|-5-7---5-7---7-9-|---10-----------|-5-7---5-7---7-9-|---10--------------|


  B5        C#5     D5     C#5
                           ~~~~~~
|-----------------|--------------------|
|-----------------|--------------------|
|-----4-----6-----|-7----7-6-(6)---6---|
|-----4-----6-----|-7----7-6-(6)-----6-|
|-----------------|--------------------|
|-5-7---5-7---7-9-|---10---------------|


  B5        C#5     D5     E5
                           \0.5_______/
|-----------------|---------------------------||
|-----------------|---------------------------||
|-----4-----6-----|-7-------------------------||
|-----4-----6-----|-7-------------------------||
|-----------------|---------------------------||
|-5-7---5-7---7-9-|---9-10-0-----(0)-(0)-(0)--||


 Break
  A5  C5/AC5D5    G5     A5
                             \0.5      /
            ~
|---------------|-----------------------------|
|---------------|-----------------------------|
|-2---5---5-7---|-0------2--[5]---(5)-(5)-(5)-|
|-2---5Sx-5-7---|-0------2--------------------|
|-0-0-----------|--------0--------------------|
|---------------|----3b4----------------------|


      C5/A  D5    G5     A5
            ~
|---------------|--------------------||
|---------------|--------------------||
|-2-2-5---5-7---|-0------2-(2)-------||
|-2-2-5---5-7---|-0------2-(2)-------||
|-0-0---x-------|--------0-(0)-19\---||
|---------------|----3b4-------------||


 Verse 3
  A5  C5/G5A5      C5/A
|----------------|-----------------------------------|
|----------------|---------------------------17b17.5-|
|-2---5S=0-2-2---|-5-------------------------17b17.5-|
|-2---5S=0-2-2---|-5----------------16-17-19---------|
|-0-x----------x-|-----0-0-15S17-19------------------|
|----------------|-----------------------------------|


  A5  C5/G5A5      C5/G5A5
|----------------|----------------|
|----------------|----------------|
|-2---5S=0-2-2---|-5--0-2---------|
|-2---5S=0-2-2---|-5--0-2-0h1-0---|
|---x----------x-|--------------3-|
|----------------|----------------|


  A5 C5/G5A5       C5/G5A5                    C5/G5A5  C5  E5D5C5G5
|----------------|----------------------|----------------|----------------||
|----------------|----------------------|----------------|-------3-(3)----||
|-2--5S=0-2------|-5S=0-2-(2)-----------|-2-2-5S=0-2-----|-9-7-5-0-(0)----||
|-2--5S=0-2------|-5S=0-2-(2)-----------|-2-2-5S=0-2-2-5-|-9-7-5-0-(0)----||
|-0----------0-0-|----------------0-----|-0-0--------0-3-|-7-5-3----------||
|----------------|------------3b5---3b5-|----------------|-------3-(3)----||


 Chorus
  B5        C#5     D5    C#5        B5        C#5     D5    C#5     A5
                    ~     ~~~~~~
|-----------------|----------------|-----------------|------------------|
|-----------------|----------------|-----------------|------------------|
|-----4-----6-----|-7---7-6-(6)----|-----4-----6-----|-7---7s6-(6)-6----|
|-----4-----6-----|-7---7-6-(6)----|-----4-----6-----|-7---7s6-(6)-6----|
|-----------------|----------------|-----------------|---------------0--|
|-5-7---5-7---7-9-|---x------------|-5-7---5-7---7-9-|---x--------------|


  B5        C#5     D5    C#5           B5        C#5     D5
                          ~~~~~~
|-----------------|-------------------|-----------------|-----------------||
|-----------------|-------------------|-----------------|-----------------||
|-----4-----6-----|-7---7-6-(6)-------|-----4-----6-----|-7---------------||
|-----4-----6-----|-7---7-6-(6)-------|-----4-----6-----|-7---------------||
|-----------------|-------------------|-----------------|-----------------||
|-5-7---5-7---7-9-|---x----------12\--|-5-7---5-7---7-9-|---9-7-0-0--12\--||


 Interlude
  A5
 ----------------|---------------------------------|
|----------------|---------------------------------|
|-2------(2)-----|-(2)-----(2)-----(2)-----(2)-----|
|-2------(2)-----|-(2)-----(2)-----(2)-----(2)-----|
|-0------(0)-----|-(0)-----(0)-----(0)-----(0)-----|
|----------------|---------------------------------|
|---------------------------------|-----------------


------------------------------------------------------------|
|---------------------------------|---------------------------------|
|-(2)-----(2)-----(2)-----(2)-----|-(2)-----(2)-----(2)-----(2)-----|
|-(2)-----(2)-----(2)-----(2)-----|-(2)-----(2)-----(2)-----(2)-----|
|-(0)-----(0)-----(0)-----(0)-----|-(0)-----(0)-----(0)-----(0)-----|
|---------------------------------|---------------------------------|


  C5/A       B5/A       G5/A       A5                     C5/A       D5/A G5/A
  Gtr I
                                   \1.5
                                                                     ~
|----------|----------|----------|----------------------|----------|-----------|
|----------|----------|----------|----------------------|----------|-----------|
|-5--------|-4--------|-0--------|----------------------|-5--------|-7----0----|
|-5--------|-4--------|-0--------|----------------------|-5--------|-7----0----|
|----------|----------|----------|-0-----(0)--(0)--(0)--|----------|-----------|
|----------|----------|----------|----------------------|----------|-----------|


  A5                                  C5/A       B5/A
                                                        Gtr III
      <    <    <      <
                                                        TPTPTPTP
|-------------------|---------------|----------|------------------|
|-------------------|---------------|----------|--------xsxsxsx---|
|-2--(2)--(2)--(2)--|-(2)-----------|-5--------|-4------xsxsxsx---|
|-2--(2)--(2)--(2)--|-(2)-----------|-5--------|-4----------------|
|-0--(0)--(0)--(0)--|-(0)-----------|----------|------------------|
|-------------------|--------17\----|----------|------------------|


  G5/A       A5      B5  C5/A   A5G5/A D5/A G5/A
  Gtr I
|----------|-----------|-------------|-----------||
|----------|-----------|-------------|-----------||
|-0--------|---------4-|-5----5p2-0--|-7----0----||
|-0--------|-2-------4-|-5----5p2-0--|-7----0----||
|----------|-0---------|-------------|-----------||
|----------|-----------|-------------|-----------||


 Re-Intro
  A5    C5/G5A5       C5/G5A5                  C5/G5A5
|-------------------|------------------|-------------------|
|-------------------|------------------|-------------------|
|-2-----5S=0-2------|-5S=0-2-(2)-------|-2-----5S=0-2------|
|-2-----5S=0-2------|-5S=0-2-(2)-------|-2-----5S=0-2------|
|-0-x-x---------x-x-|------------------|-0-x-x---------x-x-|
|-------------------|------------17\---|-------------------|


  C5/G5A5
          \0.5____________/
|--------12-----15-12-15-12-15-12-15-12-15---||
|--------------------------------------------||
|-5S=0-2-------------------------------------||
|-5S=0-2-------------------------------------||
|--------------------------------------------||
|--------------------------------------------||


 Verse 4 (Reprise)
  A5  C5/G5A5     C5/G5A5
|---------------|----------------------------------------|
|---------------|----------------------------------------|
|-----5S=0-2----|-5S=0-2-(2)-----------------------------|
|-----5S=0-2----|-5S=0-2-(2)-----------14-16-17-16-17-19-|
|-x-x---------x-|------------/14-15-17-------------------|
|---------------|----------------------------------------|


  A5    C5/G5A5       C5/G5A5
|-------------------|-----------------|
|-------------------|--------[5]b8----|
|-2-----5S=0-2------|-5S=0-2----------|
|-2-----5S=0-2------|-5S=0-2----------|
|-0-x-x---------x-x-|-----------------|
|-------------------|-----------------|


  A5    C5/G5A5      C5/G5A5
|------------------|------------------------------|
|------------------|------------------------------|
|-2-----5S=0-2-----|-5S=0-2-(2)-0h2p0-------------|
|-2-----5S=0-2-----|-5S=0-2-(2)-------0h1p0-------|
|-0-x-x--------x-x-|------------------------3b3.5-|
|------------------|------------------------------|


  A5  C5/G5A5      E5D5C5G5
|----------------|----------------|
|----------------|-------3-(3)----|
|-2---5S=0-2-----|-------0-(0)----|
|-2---5S=0-2-----|-9-7-5-0-(0)----|
|-0-x--------x-x-|-7-5-3----------|
|----------------|-------3-(3)----|


  A5  C5/G5A5      C5/G5A5
|----------------|--------------------------------|
|----------------|--------------------------------|
|-2---5S=0-2-x---|-5S=0-2-(2)---------------------|
|-2---5S=0-2-x---|-5S=0-2-(2)---------------------|
|-0-x--------x-x-|------------0-------------------|
|----------------|--------------3b5r(3)-(3)b5r(3)-|


  A5  C5/G5A5
                               \0.5         /
|----------------|-------------------------------------|
|----------------|-------------------------------------|
|-2---5S=0-2-----|-5S=0-2-(2)--------------------------|
|-2---5S=0-2-----|-5S=0-2-(2)----()-()-()--|
|-0-x--------x-x-|-------------------------------------|
|----------------|-------------------------------------|


  A5  C5/G5A5      C5/G5A5                  C5/G5A5      E5D5C5G5
|----------------|--------------------|----------------|-----------------|
|----------------|--------------------|----------------|-----------------|
|-2---5S=0-2---2-|-5S=0-2-(2)---------|-2---5S=0-2-----|-9-7-5-0-(0)-----|
|-2---5S=0-2---2-|-5S=0-2-(2)-------2-|-2---5S=0-2-----|-9-7-5-0-(0)-----|
|-0-x--------x-0-|------------0-3b4---|-0-x--------x-x-|-7-5-3-----------|
|----------------|--------------------|----------------|-------3-(3)---3-|


  A5
  \0.5/   \0.5/   \0.5/   \0.5/     \0.5/   \0.5/   \0.5/
|--------------------------------|---------------------------|
|--------------------------------|---------------------------|
|-2------(2)-----(2)-----(2)-----|-(2)-----(2)-----(2)-------|
|-2------(2)-----(2)-----(2)-----|-(2)-----(2)-----(2)-------|
|-0------(0)-----(0)-----(0)-----|-(0)-----(0)-----(0)-------|
|--------------------------------|---------------------------|


   \1___________/0.5_______________________________
|----------------------|-------------------------||
|----------------------|-------------------------||
|-(2)-----(2)--(2)-----|-(2)-(2)-(2)---(2)-------||
|-(2)-----(2)--(2)-----|-(2)-(2)-(2)---(2)-------||
|-(0)-----(0)--(0)-----|-(0)-(0)-(0)---(0)-------||
|----------------------|--------------------12\--||


  N.C.
                                                               <    >   >
                  \0.5_________\1___/
|---------------|-------------------------|--------------|-----------------|
|---------------|-------------------------|--------------|-----------------|
|-------x-7b8r7p|=5------(5)--(5)--(5)----|------------5-|-5--(5)--(5)--5--|
|---------------|-------------------------|------------5-|-5--(5)--(5)--5--|
|-0-------------|----------------------0--|-0----(0)-----|-----------------|
|---------------|-------------------------|--------------|-----------------|


  N.C.
                  \1________________________
|--------------|---------------------------|
|--------------|---------------------------|
|-5-------0tr2-|-(0tr2)----(0tr2)--(0tr2)--|
|-5------------|---------------------------|
|--------------|---------------------------|
|--------------|---------------------------|


   /                                                       \0.5/   \0.5/
|---------------------------------|--------------------------------------|
|------------------------------|--------------------------------------|
|-(0tr2)-(0tr2)---(0tr2)-------|-()---()-()--()---()---|
|---------------------------------|--------------------------------------|
|---------------------------------|--------------------------------------|
|---------------------------------|--------------------------------------|


  N.C.
        \0.5/   \0.5/   \0.5/         \0.5/           \0.5/    \0.5/   \0.5/     \0.5/
|---------------------------------------------|----------------------------------------|
|---------------------------------------------|----------------------------------------|
|--()---()---()---()-()-----|----------------------------------------|
|---------------------------------------------|--()----()---()-----()---|
|---------------------------------------------|----------------------------------------|
|---------------------------------------------|----------------------------------------|


   \0.5  /   \0.5  /       \0.5/
|-----------------------------------------------17-|
|---------------------------------------0-17-20----|
|-------------------------------------0------------|
|----(7)-(7)---(7)-(7)-(7)----(7)---------------|
|--------------------------------------------------|
|--------------------------------------------------|


  N.C.
   ~~    ~~~~~~~
|----17---------17----17-20p17----17-20p17----17----------------|
|-20----20-(20)----20----------20----------20----20p17----17----|
|------------------------------------------------------20----20p|
|---------------------------------------------------------------|
|---------------------------------------------------------------|
|---------------------------------------------------------------|


|---------------------------------------------------------------------|
|-------------------------------------17b17.5-------17b17.5-----------|
|-17h20p17-19p17----17----------------17b17.5-------17b17.5-----------|
|----------------19----19p17h19p17-19---------19-17---------19p17h19--|
|---------------------------------------------------------------------|
|---------------------------------------------------------------------|


  N.C.
                               \1.5    /
|---------------------------|----------------------------|
|-20-20------(20)----19b21--|-19-----(19)-21-0--(0)-(0)--|
|-20-20b21---(20)-20--------|----------------------------|
|---------------------------|----------------------------|
|---------------------------|----------------------------|
|---------------------------|----------------------------|


|-16-------16-------16-------17-------18-------19-|
|----15-------15-------15-------16-------17-------|
|-------13-------13-------13-------14-------15----|
|-------------------------------------------------|
|-------------------------------------------------|
|-------------------------------------------------|


  N.C.
               ~~
|-------19--------------|---------------------------------|--------------------|
|-18-------18-17--------|---------------------------------|--------------------|
|----16-------17----2\--|-5-------4-------3-------2-------|-0---0--0--0--0--0--|
|-------------------2\--|---7p5h7---6p4h6---5p3h5---4p2h4-|--------------------|
|-------------------2\--|---------------------------------|--------------------|
|-----------------------|---------------------------------|--------------------|


  N.C.                                                          A5
|-------------|---------------------|-------------------------|------|
|-------------|---------------------|-------------------------|------|
|-0--0--0--0--|-0---0----()-|-()----()------0-|-2----|
|-------------|---------------------|-----------------------0-|-2----|
|-------------|---------------------|------------------15\----|-0----|
|-------------|---------------------|-------------------------|------|


                  Interlude
                   A5  C5/A  D5/A         A5                  C5/A  D5/A
                             ~                                      ~
|---------------||---------------|----------------------|---------------|
|---------------||---------------|----------------------|---------------|
|-(2)-----------||-2---5---5-7---|-0------2-(2)-----2---|-----5---5-7---|
|-(2)-----------||-2---5---5-7---|-0------2-(2)---------|-2---5---5-7---|
|-(0)-----------||-0-x---x-------|--------0-(0)-3b4---0-|-0-x---x-------|
|--------17\----||---------------|----3b5---------------|---------------|

[ Tab from: http://www.guitartabs.cc/tabs/o/osbourne_ozzy/sucide_solution_live_tab.html ]
  G5     A5                             C5/A  D5/A  G5    A5
                T                             ~                  T
|---------------------------------|---------------|---------------------|
|-3-------------------------------|---------------|-3-------------------|
|-0------2-(2)-12p2p0-------------|-----5---5-7---|-0-----2-(2)---------|
|-0------2-(2)--------2p0---------|-2---5---5-7---|-0-----2-(2)---------|
|--------0-(0)------------3b3.5p0-|-0-x---x-------|-------0-(0)-15s16p0-|
|-3--3b5--------------------------|---------------|-3-x-3---------------|


      C5/A  D5/A  G5   A5    D#5/A  A5  C5/G5A5     C5/G5A5
            ~
|---------------|-----------------|---------------|-------------------|
|---------------|-3--3------------|---------------|-------------------|
|-----5---5-7---|-0--0-2-(2)-8\---|-2---5S=0-2----|-5S=0-2-(2)--------|
|-2---5---5-7---|-0--0-2-(2)-8\---|-2---5S=0-2----|-5S=0-2-(2)------2-|
|-0-x---x-------|------0-(0)------|-0-x---------0-|-----------------0-|
|---------------|-3--3------------|--------3------|-------------3b5---|


        C5/G5A5     C5/G5A5
|-----------------|--------------------|
|-----------------|--------------------|
|-2-----5S=0-2----|-5S=0-2-(2)-2-2-----|
|-2-----5S=0-2----|-5S=0-2-(2)-2-2-----|
|-0-x-x-----------|------------0-0-----|
|---------------3-|----------------3b4-|


      C5/G5A5      C5/A  A5
                                  ~~~~~~~~~
|----------------|------------------------------|
|----------------|------------------------------|
|-2---5S=0-2-2---|-5\----2--------()------|
|-2-2-5S=0-2-2---|-5\----2-----0----------------|
|-0-0------------|-------0---0------------------|
|--------------3-|-----3---0----------------3b4-|


        C5/G5A5     E5D5C5G5
|-----------------|----------------|
|-----------------|-------3-(3)----|
|-2-----5S=0-2--2-|-------0-(0)----|
|-2-----5S=0-2--2-|-9-7-5-0-(0)----|
|-0-x-x-----------|-7-5-3----------|
|-----------------|-------3-(3)----|


                  \1/  \1/  \1/  \1/
|------------------------------------|--------------------------||
|------------------------------------|--------------------------||
|------------------------------------|--------------------------||
|-([0])----([0])-(0)--(0)--(0)--(0)--|-([0])--5-5-5-5-[0]--[0]--||
|------------------------------------|--------5-5-5-5-----------||
|------------------------------------|--------3-3-3-3-----------||


 Randy's Guitar Solo
  N.C.
|-------------------------------------------------|
|-------------------------------------------------|
|-------------------------------------------------|
|-------------------------------------------------|
|-------3-----------3-----------3-----------3-----|
|-5p3h5---5p3-5p3h5---5p3-5p3h5---5p3-5p3h5---5p3-|


|--------------------------------------------------|
|--------------------------------------------------|
|--------------------------------------------------|
|--------------------------------------------------|
|-------3-----------3-----------3-----------3------|
|-5p3h5---5p3-5p3h5---5p3-5p3h5---5p3-5p3h5---5p3--|


  N.C.
|-------------------------------------------------|
|-------------------------------------------------|
|-------------------------------------------------|
|-------------------------------3-----------3-----|
|-------3-----------3---3h5p3h5---5p3-5p3h5---5p3-|
|-5p3h5---5p3-5p3h5---5---------------------------|


|-------------------------------------------5------|
|-------------------------------8-8S5-8p5-----8p5--|
|-------------------x-x-7-9p7h9-----------8--------|
|-------x-x-7-7p5h7--------------------------------|
|-7p5h7--------------------------------------------|
|--------------------------------------------------|


  N.C.
|-8-5-7-5-----8-5-7-5-------------------------------|
|---------8p5---------8p5h6p5---5-------------------|
|-----------------------------8---8p5-4s5p4---4-----|
|-------------------------------------------7---7p4s|
|---------------------------------------------------|
|---------------------------------------------------|


                                                  ~
|------------------------------------------------------|
|------------------------------------------------------|
|------------------------------------------------------|
|-2h3p2---2-----------2-3-2---2------------------------|
|-------5---5-3-2-3-5-------5---5-3-2-3-2---2----------|
|-----------------------------------------5---5-3-2----|


  N.C.
  ~
|----------------|----------------------------------------8-|
|----------------|-----------------------------------8h10---|
|----------------|-----------------------------5-7s9--------|
|----------------|-----5-------5-------5-7p5h7--------------|
|----------------|-5h7---7p5h7---7p5h7----------------------|
|-2----(2)--20\--|------------------------------------------|


  N.C.
|-11p10p8----8--------------------------------------------17-------|
|---------10---10p8------10h12p10----------13h15p13----------20p17-|
|-------------------9s11----------11s13h14----------14s19----------|
|------------------------------------------------------------------|
|------------------------------------------------------------------|
|------------------------------------------------------------------|


|----17----------17----------17----------17-20b22-(20)--|
|-20----20p17h20----20p17h20----20p17h20----------------|
|-------------------------------------------------------|
|-------------------------------------------------------|
|-------------------------------------------------------|
|-------------------------------------------------------|


  N.C.
    ~~~~~~~~~~~
|-(20)----(20)----|-20-20pb22-20b22==(20)r(20)-17h20p17----17h20p17----|
|-----------------|-------------------------------------20----------20-|
|-----------------|----------------------------------------------------|
|-----------------|----------------------------------------------------|
|-----------------|----------------------------------------------------|
|-----------------|----------------------------------------------------|


|-17-20p17----17-20p17----17-----------------------|
|----------20----------20----20p17s16-17-----------|
|----------------------------------------20p19p17h=|
|--------------------------------------------------|
|--------------------------------------------------|
|--------------------------------------------------|


  N.C.
                                  ~~~~~~~~~~~~~~~~~~~~~~~~~~~~~~~~~
|------------------------------------------|---------------|-----------------|
|------------------------------------------|---------------|-----------------|
|-19p17----17------------------------------|---------------|-----------------|
|-------19----19p17--------------19--(19)--|-(19)------19--|-(19)\-----------|
|-------------------19-18-17s16-(16)-(16)--|-(16)------16--|-(16)\-----------|
|------------------------------------------|---------------|------------17\--|


  N.C.
                                          ~~~~~~~~~~~~~~~~~~~
|--------------------------------------------|-----------|------|
|--------------------------------------------|-----------|-7----|
|-5p4---4------------------------------------|------5----|------|
|-----7---7p5-4h5p4---4-------------------4--|-4---------|------|
|-------------------7---7-5S2h3p2---2S3------|-----------|------|
|---------------------------------5-----5----|-----------|------|


                                                                Q=85
  N.C.
                                                     ~~~~~~~~~
|--------------------------------------------------|-----------------|
|-10p7---7-----------------------------------------|-----------------|
|------8---8-5-8-5---5-----------------------------|-----------------|
|------------------7---7-4-7p4---4-----------------|-----------------|
|------------------------------6---6-3-6p3---3-----|-----------------|
|------------------------------------------5---5-3s|=2----(2)---5h8--|


  N.C.
|---------------------------------------11-14p11h14p11h14p11h14-17p14h17p14h17p14h17p14h17-|
|---------------10s13p10h13p10h13p10h13----------------------------------------------------|
|----------8-11----------------------------------------------------------------------------|
|-----7-10---------------------------------------------------------------------------------|
|-6-9--------------------------------------------------------------------------------------|
|------------------------------------------------------------------------------------------|


  N.C.
                                     ~~~~
|-/20p17h20p17h20p17h20--------21--(21)-------|
|-----------------------17s20-(20)-(20)-------|
|---------------------------------------------|
|---------------------------------------------|
|---------------------------------------------|
|-----------------------------------------17\-|


|------------|------------|-------------------|
|----3--3----|-(3)--------|-(3)---------------|
|-2--0--2----|-(2)--------|-(2)-----------4---|
|-2--0--0----|-(0)--------|-(0)------/6-7-----|
|-0-----0----|-(0)--------|-(0)---------------|
|----3-------|------------|-------------------|


                        3/4
  ~~~~~~~~~                ~~~~~~
|----------------------|---------------------|
|----------------------|---------------------|
|-6----(6)-4-2-1h2p1---|---------------------|
|--------------------4-|---------3-6-6h7-6-4-|
|----------------------|-2s4-(4)-------------|
|----------------------|---------------------|


 4/4
|-------------------------7-----------------|
|---------------------3s8---10--------------|
|-------------------2----------9----------9-|
|------------4----4--------------11----11---|
|------2-3-4---/5-------------------12------|
|-2--5--------------------------------------|


                                                        Q
  N.C.
   PM--|            PM---------|
|--------12-10-9-------------------------|--------------|
|----------------10----------------------|---------0----|
|------9------------9----------9s8tr9----|-8tr9----0----|
|----9----------------11----11-----------|--------------|
|-11---------------------12--------------|--------------|
|----------------------------------------|--------------|


 =108
|---------17----------17----------17----17--|
|------------20p17-20----20p17-20----20-----|
|-----/21-----------------------------------|
|---7---------------------------------------|
|-7-----------------------------------------|
|-------------------------------------------|


  N.C.
|-20p17----17-20p17----17-20p17----17-20p19-17-17-|
|-------20----------20----------20----------------|
|-------------------------------------------------|
|-------------------------------------------------|
|-------------------------------------------------|
|-------------------------------------------------|


|-20-19-19-17-17-21-18-17-20-17-16\-19-16-15\-18-15-14\-17-14-13\-16-13-12\--|
|----------------------------------------------------------------------------|
|----------------------------------------------------------------------------|
|----------------------------------------------------------------------------|
|----------------------------------------------------------------------------|
|----------------------------------------------------------------------------|


  N.C.
|-15-12-11\-14-11-10\-13-10-9\-12-9-8\-11-8-7\-10-7-6\-9-6-5\-8-5s0-|
|-------------------------------------------------------------------|
|-------------------------------------------------------------------|
|-------------------------------------------------------------------|
|-------------------------------------------------------------------|
|-------------------------------------------------------------------|


|-7p4p0-7p4p0-7p4p0-7p4p0-8p5p0-8p5p0-8p5p0-8-0-5--|
|--------------------------------------------------|
|--------------------------------------------------|
|--------------------------------------------------|
|--------------------------------------------------|
|--------------------------------------------------|


  N.C.
|-7p4p0-7p4p0-7p4p0-7p4p0-8p5p0-8p5p0-8p5p0-8p5p0-|
|-------------------------------------------------|
|-------------------------------------------------|
|-------------------------------------------------|
|-------------------------------------------------|
|-------------------------------------------------|


|-12p8p0-12p8p0-12p8p0-12p8p0-10p7p0-10p7p0-10p7p0-10p7p0--|
|----------------------------------------------------------|
|----------------------------------------------------------|
|----------------------------------------------------------|
|----------------------------------------------------------|
|----------------------------------------------------------|


  N.C.
|-8p5p0-8p5p0-8p5p0-8p5p0-7p4p0-7p4p0-7p4p0-7p4p0-|
|-------------------------------------------------|
|-------------------------------------------------|
|-------------------------------------------------|
|-------------------------------------------------|
|-------------------------------------------------|


|----------------------------------------------------------|
|-12p8p0-12p8p0-12p8p0-12p8p0-10p7p0-10p7p0-10p7p0-10p7p0--|
|----------------------------------------------------------|
|----------------------------------------------------------|
|----------------------------------------------------------|
|----------------------------------------------------------|


  N.C.
                               T        T
|-----------------------------------------------|
|-8p5p0-8p5p0-8p5p0-8p5p0-4h7-12p7p4h7-12p7p4h7-|
|-----------------------------------------------|
|-----------------------------------------------|
|-----------------------------------------------|
|-----------------------------------------------|


   T        T        T        T          T        T        T            T
|-------------------------------------|----------------------------------------------|
|-12p7p4h7-12p4h7p4-12p8p5h8-12p8p5h8-|-12p8p5h8-12p8p5h7-17p9h12p9h12-17p9h12p9h12--|
|-------------------------------------|----------------------------------------------|
|-------------------------------------|----------------------------------------------|
|-------------------------------------|----------------------------------------------|
|-------------------------------------|----------------------------------------------|


  N.C.
   T            T            T              T
|---------------------------------------------------------|
|-17p9h12p9h12-17p9h12p9h12-17p10h13p10h13-17p10h13p10h13-|
|---------------------------------------------------------|
|---------------------------------------------------------|
|---------------------------------------------------------|
|---------------------------------------------------------|


   T              T              T              T
|-------------------------------------------------------------|
|-17p10h13p10h13-17p10h13p10s12-20p12h15p12h15-20p12h15p12h15-|
|-------------------------------------------------------------|
|-------------------------------------------------------------|
|-------------------------------------------------------------|
|-------------------------------------------------------------|


  N.C.
   T              T              T              T
|-------------------------------------------------------------|
|-20p12h15p12h15-20p12h15p12h15S22p13h17p13h17-22p13h17p13h17-|
|-------------------------------------------------------------|
|-------------------------------------------------------------|
|-------------------------------------------------------------|
|-------------------------------------------------------------|


   T           T           T           T
|---------------------------------------------------|
|-22p18p13h18-22p18p14h18-22p17p14h17-21p17p14h17---|
|---------------------------------------------------|
|---------------------------------------------------|
|---------------------------------------------------|
|---------------------------------------------------|


  N.C.
                            \2________/
   T           T
|----------------------------------|----------------|
|-21p17p14h17-21p17p14h(17)--------|----------------|
|----------------------------------|----------------|
|----------------------------------|----------------|
|---------------------------0------|-(0)------------|
|----------------------------------|--------0--(0)--|


        \1.5/   \1.5/    \1.5/   \1.5/   \1.5/
|--------------------------------------------------|
|--------------------------------------------------|
|--()---()----()---()---()-------|
|----------------------------------------------14\-|
|----------------------------------------------12\-|
|----------------------------------------------12\-|


  Q=120                             Q=130
  N.C.
|---------------------------------|---------------------------------|
|---------------------------------|---------------------------------|
|-7p5-----8p5-----7p5-----8p5-----|-8p5-7-5-----8p5-----8p5-7-5-----|
|-----7-5-----7-5-----7-5-----7-5-|---------7-5-----7-5---------7-5-|
|---------------------------------|---------------------------------|
|---------------------------------|---------------------------------|


  Q=140
|-----------------------------------------|
|-----------------------------------------|
|-10p8------11p8------10p8------11p8------|
|------10-8------10-8------10-8------10-8-|
|-----------------------------------------|
|-----------------------------------------|


  Q=150                                      Q=160
  N.C.
|------------------------------------------|-------------------------------------------------|
|------------------------------------------|-------------------------------------------------|
|-11p8-10-8------11p8------10p8------------|-14p12-------15p12-------15p13-------16p13-------|
|-----------10-8------10-8------10-8-12-12-|-------14-12-------14-12-------15-13-------15-13-|
|------------------------------------------|-------------------------------------------------|
|------------------------------------------|-------------------------------------------------|


  Q=170
|-------------------------------------------------|
|-------------------------------------------------|
|-16p14-------17p14-------17p15-------18p15-------|
|-------16-14-------16-14-------17-15-------17-15-|
|-------------------------------------------------|
|-------------------------------------------------|


  Q=180
  N.C.
                                               ~~~~
|--------------------------------------------------|
|-------------------------------------20b22==(20)--|
|-18p16-------19p16-------19p17--------------------|
|-------18-16-------18-16-------19p17--------------|
|--------------------------------------------------|
|--------------------------------------------------|


  Q=70
           /  /    \1___/
|----------------|---------------||
|-(20)r----------|---------------||
|----------0-----|---------------||
|-------------0--|---------------||
|----------------|---------------||
|----------------|-3---(3)-------||


 Outro
  Q=108
               A5  C5/G5A5       C5/G5A5               C5/G5A5
                                            ~
|------------|-----------------|-----------------|-------------------|
|------------|-----------------|-----------------|-------------------|
|------------|-2---5S=0-2------|-5S=0-2-(2)------|-2---5S=0-2--------|
|------------|-2---5S=0-2------|-5S=0-2-(2)------|-2---5S=0-2--------|
|------------|-0-x---------x-x-|---------------0-|-0-x---------x-x---|
|-----17\----|-----------------|------------3----|-------------------|


  C5/G5A5                      C5/G5A5     C5/G5A5                C5/G5A5
                     ~~~~
|------------------------|---------------|-------------------|--------------|
|------------------------|---------------|-------------------|--------------|
|-5S=0-2-(2)-------------|-----5S=0-2----|-5S=0-2-(2)--------|-2--5S=0-2----|
|-5S=0-2-(2)s13b14-(13)--|-----5S=0-2----|-5S=0-2-(2)--------|-2--5S=0-2----|
|------------------------|-0-0---------x-|------0-(0)------0-|-0----------0-|
|------------------------|---------------|-------------3b5---|--------------|


  C5/A A5                  C5/G5A5
|--------------------|---------------|
|--------------------|---------------|
|-5S=0-2-(2)-8s7s5-2-|-2---5S=0-2----|
|-5S=0-2-(2)-8s7s5-2-|-2---5S=0-2----|
|------0-(0)---------|-0-x---------x-|
|--------------------|---------------|


  C5/G5A5                          C5/G5A5
|----------------------------|---------------|
|----------------------------|---------------|
|-5S=0-2-(2)-----------------|-2---5S=0-2----|
|-5S=0-2-(2)S14b17-(14)-(14)-|-2---5S=0-2----|
|----------------------------|-0-0---------0-|
|----------------------------|---------------|


  E5D5C5G5
|----------------|
|-------3-(3)----|
|-------0-(0)----|
|-9-7-5-0-(0)----|
|-7-5-3----------|
|-------3-(3)----|


  Q=80
                                                       G5A5
                       ~~~~~~              ~~~~  ~~~~~~
|-[17]--[14]-([14])-([14])-([14])-([14])-[29]-([29])-|-----------*|
|---3------------------------------------------------|-----------*|
|---0--------------------------------------7---------|-0-2-------*|
|---0------------------5-----------------------------|-0-2-------*|
|----------------------------------------------------|-----------*|
|---3------------------------------------------------|-----------*|



Comments