Osbourne Ozzy - Steal Away(the Night) Chords & Tabs

 

Steal Away(the Night) Chords & Tabs

Osbourne Ozzy Chords & Tabs

Version: 1 Type: Tab 0 ratings
1 star 2 stars 3 stars 4 stars 5 stars
comments

Steal Away(the Night) Tab

 Steal Away
 

 E|-----------------------------------------------|
 B|-----------------------------------------------|
 G|--------9--------7--------9--------7--------9--|
 D|--------9--------7--------9--------7--------9--|
 A|-----------------------------------------------|
 E|--0--0-----7--9-----9--7-----7--9-----9--7-----|




 E|-----------------------------------------------|
 B|-----------------------------------------------|
 G|--------5--------3-----------------4--4--------|
 D|--------5--------3-----------------4--4--------|
 A|--3--3--------------------4--3--4--2--2--------|
 E|-----------3--5-----5--3--2--1--2--------3--2--|
                        Po    Sl             Po


Verse:
|------------------------------------------------------------------
|------------------------------------------------11/12~~~~~~~~-----
|-----9--------9--------9-------9--------7/9-----11/12-------------
|-----9--------9--------9-------9--9-----7/9--0--------------------
|----------------------------------9h11----------------------------
|-0-------0-0------0-0-----0-0-------------------------------------

|--------------------------3---------------------------------------
|-10-------12-----10-------3---------------------------------------
|-11-------12-----11-------0-------------------------4----4--------
|--------------------------0-------------------------4----4--------
|---------------------------------------3-2-0--------2----2--------
|----------------------0-2-3-------0--3-------3-2-0----------------

|------------------------------------------------------------------
|------------------------------------------------------------------
|----9------7---x----9---7-----7h9-----12~~~~~---11--12~~~~~~~-10--
|----9------7---x----9---7-----7h9--0--12--------12--12--------11--
|------------------------------------------------------------------
|-0-----0-0-------0---------0--------------------------------------
[ Tab from: http://www.guitartabs.cc/tabs/o/osbourne_ozzy/steal_awaythe_night_tab.html ]
|-----3------------------------------------------------------------
|-----3---------------------------------------Harm.----------------
|-----0---------------------------4-----4---4-5--------------------
|-----0---------------------------4-----4--------------------------
|-------------------3-2-0---------2--------------------------------
|-x\--3---------0-3-------3-2-0------------------------------------

Chorus:
|------------------------------------------------------------------------
|--------------------9------PM--------------------------9----------------
|------9------11--9--9---------------------9------------9------9---------
|------9-------9--9--9----7-9-9-7-6--------9-----9------9----7---9-7-6---
|------7----------7--7--7-----------7------7-----7--7h9-7--7-----------7-
|-0-0----------------------------------0-0-------------------------------

|------------------------------------------------------------------
|------------------------------------------------------------------
|------9----11--9----------9---------------------------------------
|------9-----9--9--------9---9-7\6---------------------------------
|------7--------7----6/7-----------7-------------------------------
|-0-0--------------------------------------------------------------

|-7---7-7/8---8-8/9---9-9/10---10-10/11--11-11/12--12-12/13--13-13/14-
|---------------------------------------------------------------------
|-4---4-4/5---5-5/6---6-6/7-----7--7/8----8--8/9----9--9/10--10-10/11-
|---------------------------------------------------------------------
|---------------------------------------------------------------------
|---------------------------------------------------------------------

|---------------------------------------------------||-------------
|---------------------------------------------------||-------------
|-4-----2-----4-----2-----4---2---4-----2-----4-----||-------------
|-4-----2-----4-----2-----4---2---4-----2-----4-----||-------------
|---0-0---0-0---0-0---0-0---0---0---0-0---0-0---0-0-||-0-0---------
|---------------------------------------------------||-----19\-----





-Matt
Comments