Osbourne Ozzy - Slow Down Chords & Tabs

 

Slow Down Chords & Tabs

Osbourne Ozzy Chords & Tabs

Version: 1 Type: Bass Tab 0 ratings
1 star 2 stars 3 stars 4 stars 5 stars
comments

Slow Down Bass Tab

=== Crankster's Ozzy Page
=== http://crankster.cjb.net
=== crankster@mailexcite.com

Transcriber - Ryan Silke 

Slow Down
Ozzy Osbourne- Bark At The Moon


Intro x 2
G-----------------------------------------------------
D-----------------------------------------------------
A--7-77777-77777-77777-77777-77777-77777-77777-77777--
E-----------------------------------------------------


G-----------
D----454----
A--5-----5--
E-----------

Pre-Verse x 2
G-------------------------------------------------------
D------------------------------------------------454----
A--7--7777777777777777777-999999999-777-5--5--55-----5--
E-------------------------------------------------------


Verse (triplet feel)
G-----------------------------------------------------
D-----------------------------------------------------
A--777777777777777777777777-999999999999999999999999--
E-----------------------------------------------------


G---------------------------------------------------91011--
D-----------------------------------------------911--------
A--777777777777777777777777-9999999999999999911------------
E----------------------------------------------------------


Pre-Chorus x 2
G-----------------------------------------------------------------------
D-----------------------------------------------------------------------
A--10101010101010101010109----------------------------------------------
E-------------------------1098-8-8888888-10-8-777777777777777777777777--


Chorus
"Slow Down.."           x 4
G------------------------------------------------------
D------------------------------------------------------
A--4--4--44444444-\-0-0-000000000-0-2-222222222222222--
E------------------------------------------------------


repeat Verse

repeat Pre-Chorus x 2

repeat Chorus x 4


[ Tab from: http://www.guitartabs.cc/tabs/o/osbourne_ozzy/slow_down_btab.html ]
Bridge
G-------------------------------------------------------------------------------
D-------------------------------------------------------------------------------
A--777777777777-999999999999-101010101010101010101010-1212121212121212121212-\--
E-------------------------------------------------------------------------------



Pre-Solo
G-------------------------------------------------------------
D------R-----R-----R-----R-----R-----R-----R------------------
A--------------0-0---0-0---------------0-0---0-0-0-0-0-0-0-0--
E--1-1---1-1---------------1-1---1-1--------------------------



Solo            x 2
G----------------------------------------------------
D----------------------------------------------------
A----------------------------00000000000000000000----
E--11111111111111111111111-3----------------------3--



More Solo
G-----------------------------------------------------------------------------------------
D-----------------------------------------------------------------------------------------
A--3333333333333333333-222222222222222222222-111111111111111111111-000000000000000000000--
E-----------------------------------------------------------------------------------------



End Solo
G--------------------------------------
D--------------------------------------
A--3---3---3---3---3---3---3--3--3--3--
E--------------------------------------



repeat Pre-verse x 2


Verse
G-----------------------------------------------------
D-----------------------------------------------------
A--777777777777777777777777-999999999999999999999999--
E-----------------------------------------------------



G------------------------------------------91011-11109---------
D--------------------------------------911------------119------
A--777777777777777777777777-99999999911-------------------119--
E--------------------------------------------------------------



repeat Pre-Chorus x 2
repeat Chorus x 4



Outro
G-------------------------------------------------
D-------------------------------------------------
A--2-2----2-2----2-2----2-2----2-2----2-2----2-2--
E-------------------------------------------------



Comments