Osbourne Ozzy - Rock N Roll Rebel Chords & Tabs

 

Rock N Roll Rebel Chords & Tabs

Osbourne Ozzy Chords & Tabs

Version: 1 Type: Tab 0 ratings
1 star 2 stars 3 stars 4 stars 5 stars
comments

Rock N Roll Rebel Tab

   
 Ozzy Osbourne
 Rock n Roll Rebel

                            
  Moderate Rock =126
 4/4
  Gtr I
    PM|   PM|   PM|     PM|   PM|   PM|
|-------------------|-------------------|-----------------|--------------------|
|-------------------|-------------------|-----------------|--------------------|
|-2-----4-----6-----|-2-----4-----6-----|-----------------|-9s11--11-(11)--x\--|
|-2-----2-----2-----|-2-----2-----2-----|-2s4--4-(4)--4/--|-9s11--11-(11)--x\--|
|-------------------|-------------------|-2s4--4-(4)--4/--|-7s=9---9--(9)--x\--|
|---2-2---2-2---2-2-|---2-2---2-2---2-2-|-0h2--2-(2)--2/--|--------------------|


    PM|   PM|   PM|     PM|   PM|   PM|
|-------------------|-------------------|
|-------------------|-3-----------------|
|-2-----4-----6-----|-2-----6-----4-----|
|-2-----2-----2-----|-2-----2-----2-----|
|-------------------|-------------------|
|---2-2---2-2---2-2-|---2-2---2-2---0-0-|


|------------------|----------------------||
|------------------|----------------------||
|------------------|-9s11---11-(11)--x\---||
|-7s4---4-(4)--4/--|-9s11---11-(11)--x\---||
|-7s4---4-(4)--4/--|-7s=9----9--(9)--x\---||
|-5s2-0-2-(2)--2/--|------x---------------||


 Guitar Solo I
  Gtr II
           ~~~~~~~~~~~~~            ~~~~~~~~~~~              ~~
|-------------------------14------------|----------14--------------14---------|
|-17b19==(17)-----(17)r------17p14-17---|-(17)--------17p14-17--------17p==14-|
|---------------------------------------|-------------------------------------|
|---------------------------------------|-------------------------------------|
|---------------------------------------|-------------------------------------|
|---------------------------------------|-------------------------------------|
|
| Gtr I
|          PM-|     PM--|           PM|        PM|           PM|    PM---|
|---------------------------------------|-------------------------------------|
|---------------------------------------|-------------------------------------|
|--2------------4----------6------------|---2-------4------------6------------|
|--2------------2----------2------------|---2-------2------------2------------|
|---------------------------------------|-------------------------------------|
|----------2--2-----2---2-----------2-2-|------2-2-----------2-2----2----2----|


|------------14------------14----------17----------------------|
|-17b19-(17)--------14-17-----17-14----------------------------|
|----------------17-----------------17----17--16-14-16b16.5p14-|
|--------------------------------------------------------------|
|--------------------------------------------------------------|
|--------------------------------------------------------------|
|
|--------------------------------------------------------------|
|--------------------------------------------------------------|
|--------------------------------------------------------------|
|--2s=====4-------4----(4)-----------------4/------------------|
|--2s=====4-------4----(4)-----------------4/------------------|
|--0h=====2-------2----(2)-----------------2/------------------|


                                ~~~~~~~
|---------------------------------------|
|----------------14---------------------|
|----14-16-16b18----16-14--16--14-(14)--|
|-16------------------------------------|
|---------------------------------------|
|---------------------------------------|
|
|---------------------------------------|
|---------------------------------------|
|--9s===11----------11----(11)------x\--|
|--9s===11----------11----(11)------x\--|
|--7s====9-----------9-----(9)------x\--|
|---------------------------------------|


|-----------------------------------------------------------------------------------------------|
|-14h17p14h17p14h17p14s13h16p13s12h15p12h15p12s11h14p11h14p11s10h13p10h13p10s9h12p9h12p==9s8h===|
|-----------------------------------------------------------------------------------------------|
|-----------------------------------------------------------------------------------------------|
|-----------------------------------------------------------------------------------------------|
|-----------------------------------------------------------------------------------------------|
|
|              PM---------|                        PM------|                      PM---|
|-----------------------------------------------------------------------------------------------|
|-----------------------------------------------------------------------------------------------|
|-----2--------------------------------4--------------------------------6-----------------------|
|-----2--------------------------------2--------------------------------2-----------------------|
|-----------------------------------------------------------------------------------------------|
|--------------2-----------2-----------------------2--------2---------------------2----2--------|


|--------------------------------------------------------------------|
|-11p8h11p8s7h10p7h10p7s6h9p6h9p6s5h8p5h8p5s4h7p4h7p4s3h6p3h6p==3s2h=|
|--------------------------------------------------------------------|
|--------------------------------------------------------------------|
|--------------------------------------------------------------------|
|--------------------------------------------------------------------|
|
|         PM-------|                PM----|               PM--|
|--------------------------------------------------------------------|
|--3-----------------------------------------------------------------|
|--2------------------------6---------------------4------------------|
|--2------------------------2---------------------2------------------|
|--------------------------------------------------------------------|
|---------2---------2---------------2-----2---------------0---0------|


|--------------------------------------|
|-5p2h5p2px----------------------------|
|-----------4b6----4--2------4-[2]b2.5-|
|-----------------------4-2------------|
|--------------------------------------|
|--------------------------------------|
|
|--------------------------------------|
|--------------------------------------|
|--------------------------------------|
|-7s====4-------4-(4)-----4/-----------|
|-7s====4-------4-(4)-----4/-----------|
|-5s====2---0---2-(2)-----2/-----------|


                          PM---------|
|-------------------------------------------||
|-------------------------------------------||
|-------------------------------------------||
|-4-[2]-------------------------------------||
|----------[4]-[3]-[2]-----------2---1------||
|-------------------------5---2----5----4s5-||
|
|-------------------------------------------||
|-------------------------------------------||
|-9s====11-------------11---(11)-----x\-----||
|-9s====11-------------11---(11)-----x\-----||
|-7s=====9--------------9----(9)-----x\-----||
|---------------x---------------------------||


   Verse
    $
    ~
||---------------|------------------|-------------------|
||o--------------|------------------|-------------------|
||---------------|------------------|-------------------|
||---------------|------------------|-------------------|
||o--------------|------------------|-------------------|
||--2------------|------------------|-------------------|
|
||---------------|------------------|-------------------|
||o--------------|------------------|-------------------|
||----------2----|-4-------7---(7)\-|-------------------|
||--4---x-x-2----|-4---x-x-7---(7)\-|-2s4--4-(4)---x-x--|
||o-4---x-x-0----|-2---x-x-5---(5)\-|-2s4--4-(4)---x-x--|
||--2---x-x------|------------------|-0h2--2-(2)--------|


  Gtr I
|-----------------------|--------------|-------------------|
|-----------------------|--------------|-------------------|
|-9s11--11-(11)---(11)\-|---------2----|-4---(4)-/7---(7)\-|
|-9s11--11-(11)---(11)\-|-4---x-x-2----|-4---(4)-/7---(7)\-|
|-7s=9---9--(9)----(9)\-|-4---x-x-0----|-2---(2)-/5---(5)\-|
|-----------------------|-2---x-x------|-------------------|


|------------------|-----------------------|--------------|
|------------------|-----------------------|-2---0-(0)----|
|------------------|-9s11--11-(11)--(11)\--|-0---0-(0)----|
|-2s4--4-(4)---x-x-|-9s11--11-(11)--(11)\--|-0---0-(0)----|
|-2s4--4-(4)---x-x-|-7s=9---9--(9)---(9)\--|-x---x-(x)----|
|-0h2--2-(2)---x-x-|-----------------------|-3---3-(3)----|


|--------------|--------------|----------------|
|-(0)----0--0--|-3---2-(2)----|-(2)-----2-2-2--|
|-(0)----0--0--|-2---2-(2)----|-(2)-----4-2-2--|
|-(0)----0--0--|-2---2-(2)----|-(2)---2-2-2-2--|
|-(x)----x--x--|-0---0-(0)----|-(0)-----0-0-0--|
|-(3)----3--3--|--------------|----------------|


                                        PM------------|
|--------------|----------------------|-----------------|
|-2---0-(0)----|-0------------0---3---|-----------------|
|-0---0-(0)----|-0--------2--(2)-(2)--|-----------------|
|-0---0-(0)----|-0----0--(0)-(0)-(0)--|-2-2-2-2-2-2-2-2-|
|-x---x-(x)----|-x--------------------|-0-0-0-0-0-0-0-0-|
|-3---3-(3)----|-3---(3)-(3)-(3)-(3)--|-----------------|


                    Chorus
  PM                 PM--|   PM--|    PM           ~~~~~~~~~
|-------2-----0---||--------------------|-------------------------|
|-----3-----3---0-||--------------------|-------------------------|
|---0-----2-------||-------9-------7----|---------[7]-([7])-6-----|
|-----------------||-------9-------7----|---------------------7\--|
|-3---------------||-------7-------x----|-5s7-5-4-----------------|
|-----------------||-0-0-0---0-0-0----0-|-------------------------|


  PM--|   PM----|                              PM--|
|---------------------------|----------------|-------------------|
|---------------------------|----------3-----|-------------------|
|-------9---------7-(7)-----|-7p6------0--2--|-------9---12-7-7--|
|-------9---------7-(7)-----|-----7\---0--2--|-------9---12-7-7--|
|-------7---------x-(x)-----|----------x--0--|-------7---10-5-5--|
|-0-0-0---0-0-0-0-------0-0-|--------0-3-----|-0-0-0---0---------|


                                                   To Coda
        ~~~~~~       PM--|   PM--|
|-x----------------|----------------------|----------3--x--|
|-9-----7-(7)------|----------------------|----------3--3--|
|-9-----7-(7)--x\--|-------9-------7------|-7p6------0--2--|
|-9-----7-(7)--x\--|-------9-------7------|-----7\---0--0--|
|--------------x\--|-------7-------x------|----------x-----|
|---x-0------------|-0-0-0---0-0-0----0-0-|--------0-3-----|


|---------------|-------------------||
|---------------|-------------------||
|-----9--12-7---|-(7)---------------||
|-----9--12-7---|-(7)-7-7-7-7-7-7\--||
|-----7--10-5---|-(5)-5-5-5-5-5-5\--||
|-0-0-----------|-------------------||


 Guitar Solo II
  1.
  Gtr II
   ~~~~~~~~~~~~~~~~~~~~~~~~~~~~~~~~~~~~~~~~~~~~~~~~~~~~~~
|-----------------------------|---------------------------|
|-----------------------------|---------------------------|
|-[2]-------([2])-([2])-------|-([2])-------------([2])s==|
|-----------------------------|---------------------------|
|-----------------------------|---------------------------|
|-----------------------------|---------------------------|
|
| Gtr I
|     PM|     PM--|       PM|         PM|   PM|     PM--|
|-----------------------------|---------------------------|
|-----------------------------|---------------------------|
|--2------4-------------6-----|---2-------4-----6---------|
|--2------2-------------2-----|---2-------2-----2---------|
|-----------------------------|---------------------------|
|-----2-2-----2-----2-----2-2-|-------2-2---2-2-----2---2-|


                                        ~~~~
|---------------------|--------------------------|
|-------------2-------|------14----14--17--------|
|-[1]---------2-------|------14----14------------|
|--------2-4------4/--|-x-14----16---------------|
|----2s4--------------|--------------------------|
|---------------------|--------------------------|
|
|---------------------|--------------------------|
|---------------------|--------------------------|
|---------------------|-9s===11----11-(11)--x\---|
|--2s==4---4-(4)--4/--|-9s===11----11-(11)--x\---|
|--2s==4---4-(4)--4/--|-7s====9-----9--(9)--x\---|
|--0h==2---2-(2)--2/--|--------------------------|


                 ~~~~~~~~~~~~~~~~~~~
|---------------------------|-------------------------|
|-17b19========(17)---------|-(17)r======(17)-x-x-----|
|---------------------------|-------------------x-xs==|
|---------------------------|---------------------xs==|
|---------------------------|---------------------xs==|
|---------------------------|-------------------------|
|
|        PM|     PM-|   PM|        PM|     PM-|   PM|
|---------------------------|-------------------------|
|---------------------------|---3---------------------|
|--2---------4--------6-----|---2------6--------4-----|
|--2---------2--------2-----|---2------2--------2-----|
|---------------------------|-------------------------|
|--------2-2-----2--2---2-2-|------2-2-----2--2---0-0-|


|------17b19=============|=(17)b18==========(17)r(17)\-------||
|------------------------|----------------------------------o||
|-x-14-------------------|-----------------------------------||
|-x-14-------------------|-----------------------------------||
|-x----------------------|-----------------------------x\---o||
|------------------------|-----------------------------x\----||
|
|------------------------|-----------------------------------||
|------------------------|----------------------------------o||
|------------------------|---9s=====11---11-(11)-------x\----||
|-7s=4--------4-(4)--4/--|---9s=====11---11-(11)-------x\----||
|-7s=4--------4-(4)--4/--|---7s======9----9--(9)-------x\---o||
|-5s=2--0-----2-(2)--2/--|-------------x---------------------||


 Guitar Solo III
  2.
                                                                      ~~~~~~
|-------------------|-----------------------------------|--------------------|
|-------------------|-------------6---------------------|--------------------|
|-6-----------------|-([6])---6-7-----6-----------------|--------------------|
|-------------------|---------------9---9-7-5-9-7-6h7---|-6-7----------------|
|-------------------|---------------------------------9-|-----9-7--7s=9-(9)--|
|-------------------|-----------------------------------|--------------------|
|
|   PM|   PM|   PM|         PM|       PM--|       PM--|
|-------------------|-----------------------------------|--------------------|
|-------------------|-----------------------------------|--------------------|
|-2-----4-----6-----|---2---------4-----------6---------|--------------------|
|-2-----2-----2-----|---2---------2-----------2---------|-2s4---4-(4)----4/--|
|-------------------|-----------------------------------|-2s4---4-(4)----4/--|
|---2-2---2-2---2-2-|-------2-2-------2---2-------2---2-|-0h2---2-(2)----2/--|


|---------------------------------|--------------------------------------------|
|---------------------------------|-----------------------------------------17-|
|---------------------------------|-----------------------14-------14-16s18----|
|-2-4--2---2----------------------|--------------------14----14h16-------------|
|--------4---4--2-----2--0--------|---------14-15---16-------------------------|
|-----------------5--------2-(2)--|-14---16------------------------------------|
|
|                                      PM---|           PM---|            PM|
|---------------------------------|--------------------------------------------|
|---------------------------------|--------------------------------------------|
|-9s==11-------11---(11)------x\--|--2------------4-----------------6----------|
|-9s==11-------11---(11)------x\--|--2------------2-----------------2----------|
|-7s===9--------9----(9)------x\--|--------------------------------------------|
|---------------------------------|----2-----2----------2-----2-----------2--2-|


                ~~~~~~~~~~
|----------19-(19)---(19)-----------|
|-19----17--------------------------|
|----18-----------------------------|
|-----------------------------------|
|-----------------------------------|
|-----------------------------------|
|
|        PM---|        PM-|   PM|
|-----------------------------------|
|--3--------------------------------|
|--2---------------6--------4-------|
|--2---------------2--------2-------|
|-----------------------------------|
|--------2------2------2--2---0-0---|


|-17h21p19-17h19h21-17h21p19-17h19h21-17h=21p19-17h19h21-17h=21p19-17h19h21-|
|---------------------------------------------------------------------------|
|---------------------------------------------------------------------------|
|---------------------------------------------------------------------------|
|---------------------------------------------------------------------------|
|---------------------------------------------------------------------------|
|
|---------------------------------------------------------------------------|
|---------------------------------------------------------------------------|
|---------------------------------------------------------------------------|
|--7s=======4-----------------4-------(4)-----------------4/----------------|
|--7s=======4-----------------4-------(4)-----------------4/----------------|
|--5s=======2--------0--------2-------(2)-----------------2/----------------|


                                                         ~~~~
|-17h21p19-17h19h21-17h21p19-17h19h21--17--19-21-17-16-(16)----||
|--------------------------------------------------------------||
|--------------------------------------------------------------||
|--------------------------------------------------------------||
|--------------------------------------------------------------||
|--------------------------------------------------------------||
|
|--------------------------------------------------------------||
|--------------------------------------------------------------||
|--9s======11----------------11-------(11)---------------x\----||
|--9s======11----------------11-------(11)---------------x\----||
|--7s=======9-----------------9--------(9)---------------x\----||
|--------------------x-----------------------------------------||


 Bridge
|---------------|-------------|---------------|-------------|
|---------------|-------------|---------------|-------------|
|---------------|-------------|---------------|-------------|
|-9-9---(9)---9-|-9----(9)----|-5-5---(5)---5-|-5--(5)------|
|-9-9---(9)---9-|-9----(9)----|-5-5---(5)---5-|-5--(5)------|
|-7-7---(7)---7-|-7----(7)----|-3-3---(3)---3-|-3--(3)------|


                                                               Guitar Solo IV
                                                                B5          A5
                                                                Gtr I
                                                                 |          |
                                                                 /          /

                                                                 ~~~~~
|---------------|-----------|----------------|---------------||----------------|
|---------------|-----------|----------------|---------------||-10b12----------|
|-6-6---(6)---6-|-6------6--|-11---9-(9)--7--|-(7)-6---7--9--||----------------|
|-6-6---(6)---6-|-6------6--|-11---9-(9)--7--|-(7)-6---7--9--||----------------|
|-4-4---(4)---4-|-4------4--|--9---7-(7)--5--|-(5)-4---5--7--||----------------|
|---------------|-----------|----------------|---------------||----------------|


  G5
  |
  /

|------9pb10r(9)-7-9-7h9p7----7-|
|----9---------------------10---|
|--9----------------------------|
|-------------------------------|
|-------------------------------|
|-------------------------------|


  C#5                          A5          G5        F#5
   |                            |       |   | |       |
   /                            /       /   / /       /

                  ~~~~~
|------------------------|-----12pb14r(12)-10-9h10p9----9-|
|-10b14===(10)--(10)r----|--12-----------------------10---|
|------------------------|--------------------------------|
|------------------------|--------------------------------|
|------------------------|--------------------------------|
|------------------------|--------------------------------|


  B5                         A5   G5
   |                          |    |
   /                          /    /

|-------------------------------|-------------------------------------------------------------|
|-10s12-12-14-15-14h15p14-12----|-------12-14-15p14pb14.5-(14)b15r(14)b15==(14)r(14)b15==(14)r|
|----------------------------14-|-12--x-------------------------------------------------------|
|-------------------------------|-------------------------------------------------------------|
|-------------------------------|-------------------------------------------------------------|
|-------------------------------|-------------------------------------------------------------|


  C#5
    |
    /

            ~~~~
|-----------------------------------------|
|-(14)b15-(14)-14-15-17b19-17-15h17p15-14-|
|-----------------------------------------|
|-----------------------------------------|
|-----------------------------------------|
|-----------------------------------------|


  A5     G5        F#5     B5          D5            A5
   |      |  |     |        |           |      |       |
   /      /  /     /        /           /      /       /

                                               ~~~~
|------------------------|-------------17b19r(17)-14-(14)----14----|
|-----14-15-20b22r==(20)-|-17b19r=(17)--xb19r=(x)---------17----17-|
|-14---------xb22r===(x)-|--xb19r==(x)-----------------------------|
|------------------------|-----------------------------------------|
|------------------------|-----------------------------------------|
|------------------------|-----------------------------------------|


   |     |     |     |     |     |     | |
   /     /     /     /     /     /     / /

                                       ~~
|-----------------------------------------|
|-15p14----14-17-17p15p14-15p14----14-----|
|-------16----------------------16--------|
|-------------------------------------16--|
|-----------------------------------------|
|-----------------------------------------|

[ Tab from: http://www.guitartabs.cc/tabs/o/osbourne_ozzy/rock_n_roll_rebel_tab.html ]
  B5                  D5           A5
    |                 |    |        |          |          |      |  |     | |  |  |
    /                 /    /        /          /          /      /  /     / /  /  /

    ~~~~                                                                       ~~~~~
|---------------14--------------------------|--------------------------------------|
|------------14----17--15-14----------------|--------------------------------------|
|---------16-----------------16-14----------|--------------------------------------|
|-(16)-16--------------------------17-16-14-|-16b17==(16)r=(16)-14-12h14-----------|
|-------------------------------------------|----------------------------12--[12]--|
|-------------------------------------------|--------------------------------------|


  B5                    D5                         C#5
     |                   |        |                 |
     /                   /        /                 /

 ~~~~~~~~ PM|
|-----------------------------------------------------------15h17hx--|
|--------------------------------------------------15h17h19----------|
|-----------------------14h16h17----------14h16h17-------------------|
|--------------14h16h17----------14h16h17----------------------------|
|-([12])-14-16-------------------------------------------------------|
|--------------------------------------------------------------------|


                                      D5
   |    |     |      | |    ||  |     |       |      |       |      |       |      |       |
   /    /     /      / /    //  /     /       /      /       /      /       /      /       /

                       ~~~~~~~~~~~~~
|-19b21r=(19)--21b23r=21b23r==(21)\-|------7-12p7---------7-12p7---------7-12p7---------7-12p7----|
|---------------xb23r==xb23r===(x)\-|-7-10--------10-7-10--------10-7-10--------10-7-10--------10-|
|-----------------------------------|-------------------------------------------------------------|
|-----------------------------------|-------------------------------------------------------------|
|-----------------------------------|-------------------------------------------------------------|
|-----------------------------------|-------------------------------------------------------------|


  E5
  |       |      |       |      |       |      |       |
  /       /      /       /      /       /      /       /

|------7-12p7---------7-12p7---------7-12p7---------11-7/-|
|-7-10--------10-7-10--------10-7-10--------10-7-10-------|
|---------------------------------------------------------|
|---------------------------------------------------------|
|---------------------------------------------------------|
|---------------------------------------------------------|


  F#5
   |    | |    |    |    |    |    |
   /    / /    /    /    /    /    /

|-17b19--14-17-----14------------------|
|---------------17----14--17-----------|
|----------------------------17-16-----|
|-----------------------------------14-|
|--------------------------------------|
|--------------------------------------|
|
|--------------------------------------|
|--------------------------------------|
|--------------------------------------|
|--------------------------------------|
|--------------------------------------|
|--------------------------------------|


   |    |    |    |    |    |  |  |
   /    /    /    /    /    /  /  /

      PM-|                                                T
|----------------------------------||---------------------------|
|---------------------17b19--(17)--||-17b21==============18p17--|
|-14---------------14--------------||---------------------------|
|----16--------14------------------||---------------------------|
|--------14-16---------------------||---------------------------|
|----------------------------------||---------------------------|
|
|                                     Gtr I
|                                            PM|   PM|    PM|
|----------------------------------||---------------------------|
|----------------------------------||---------------------------|
|----------------------------------||--2---------4-----6--------|
|----------------------------------||--2---------2-----2--------|
|----------------------------------||---------------------------|
|----------------------------------||--------2-2---2-2----2--2--|


   T     T     T       T            T     T
|-------------------------------------------|
|-18p17-18p17-18p17---18p17---(17)-20p17-20p|
|-------------------------------------------|
|-------------------------------------------|
|-------------------------------------------|
|-------------------------------------------|
|
|        PM---|        PM---|          PM|
|-------------------------------------------|
|-------------------------------------------|
|--2----------------4-----------6-----------|
|--2----------------2-----------2-----------|
|-------------------------------------------|
|--------2-----2-------2----2----------2--2-|


      T     T     T       T      T      T       T        T     T
|--------------------------------------------|--------------------------------------|
|-17-20p17-20p17-20p==17r20p=17-20p17--20p17-|-20p17----20p17-20p===17-(17)-----x\--|
|--------------------------------------------|----------------------------------x\--|
|--------------------------------------------|--------------------------------------|
|--------------------------------------------|--------------------------------------|
|--------------------------------------------|--------------------------------------|
|
|--------------------------------------------|--------------------------------------|
|--------------------------------------------|--------------------------------------|
|--------------------------------------------|--9s===11----------11----(11)--x\-----|
|--2s====4----------4----(4)--------4/-------|--9s===11----------11----(11)--x\-----|
|--2s====4----------4----(4)--------4/-------|--7s====9-----------9-----(9)--x\-----|
|--0h====2----------2----(2)--------2/-------|--------------------------------------|


    PM|   PM|   PM|     PM|   PM|   PM|
|-------------------|-------------------|
|-------------------|-3-----------------|
|-2-----4-----6-----|-2-----6-----4-----|
|-2-----2-----2-----|-2-----2-----2-----|
|-------------------|-------------------|
|---2-2---2-2---2-2-|---2-2---2-2---2-2-|
|
|   PM|   PM|   PM|     PM|   PM|   PM|
|-------------------|-------------------|
|-------------------|-3-----------------|
|-2-----4-----6-----|-2-----6-----4-----|
|-2-----2-----2-----|-2-----2-----2-----|
|-------------------|-------------------|
|---2-2---2-2---2-2-|---2-2---2-2---0-0-|


                               D.S. al Coda
|------------------|-------------------------||
|------------------|-------------------------||
|------------------|-9s11---11-(11)--(11)\---||
|-7-4---4-(4)--x/--|-9s11---11-(11)--(11)\---||
|-7-4---4-(4)--x/--|-7s=9----9--(9)---(9)\---||
|-5-2-0-2-(2)--x/--|-------------------------||
|
|------------------|-------------------------||
|------------------|-------------------------||
|------------------|-9s11---11-(11)----x\----||
|-7s4---4-(4)--4/--|-9s11---11-(11)----x\----||
|-7s4---4-(4)--4/--|-7s=9----9--(9)----x\----||
|-5s2-0-2-(2)--2/--|------x------------------||


  &
  Gtr I
  PM--|   PM----|   PM----|                 ~~~~~
|---------------------------|-------------------------|
|---------------------------|-------------------------|
|-------9---------7---------|---------[7]-([7])-6-----|
|-------9---------7---------|---------------------7\--|
|-------7---------x---------|-5s7-5-4-----------------|
|-0-0-0---0-0-0-0---0-0-0-0-|-------------------------|


  PM--|   PM----|   PM----|
|----------------------------|
|----------------------------|
|-------9---------7----------|
|-------9---------7----------|
|-------7---------x----------|
|-0-0-0---0-0-0-0---0-0-0-0--|


                                       E    D5/E
                                       Gtr I
                                       |    ||
                                       /    //

                   PM--|
|----------------|-------------------|-------------||
|----------------|-------------------|-------------||
|-7p6------0--2--|-------9---12-7-7--|-------------||
|-----7\---0--2--|-------9---12-7-7--|-x/----x/----||
|----------x--0--|-------7---10-5-5--|-x/----x/----||
|--------0-3-----|-0-0-0---x---------|-x/----x/----||


 Guitar Solo V
  Gtr II
                                                                        ~~
|------------------------------------------------|---------------------------|
|-12------12-14---14b16r14b16==(14)r(14)-12------|-12-14-14b16r(14)-12-------|
|-12------12-14---14b16r14b16==(14)r(14)-12------|-12-14-14b16r(14)-12-------|
|----14-------------------------------------14---|---------------------12----|
|------------------------------------------------|---------------------------|
|------------------------------------------------|---------------------------|
|
| Gtr I
|  PM---|     PM--|
|------------------------------------------------|-------------------3----x--|
|------------------------------------------------|-------------------3----3--|
|----------9-------------7-----------------------|--7p=6-------------0----2--|
|----------9-------------7-----------------------|--------7\---------0----0--|
|----------7-------------x-----------------------|-------------------x-------|
|--0--0-0-----0-0--0-------------------------0-0-|---------------0---3-------|


                ~~~~
|-------------------------------------------------|
|------------------------------------------12-17--|
|------------------------12-16-14b16r12h14--------|
|-------12-12-[14]-12h14--------------------------|
|-12h14-------------------------------------------|
|-------------------------------------------------|
|
|  PM------|        PM------|         PM------|
|-------------------------------------------------|
|-------------------------------------------------|
|---------------9---------------7-----------------|
|---------------9---------------7-----------------|
|---------------7---------------x-----------------|
|--0-----0--0-------0--0--0--0--------0--0--0--0--|


                    ~~~~~~~~~
|------------12-17-15--(15)-------19b22==|
|---15-12h14-----------------------------|
|----------------------------------------|
|------------------------------x/--------|
|----------------------------------------|
|----------------------------------------|
|
|                        ~~~~~
|----------------------------------------|
|----------------------------------------|
|------------------[7]-([7])-6-----------|
|------------------------------7\--------|
|-5s=7--5-----4--------------------------|
|----------------------------------------|


                                                                   ~~~~
|-(19)-----(19)r====(19)-----15--------15---|------------------------------|
|---------------------------------17--------|-17b20-17-15h=17-17-----------|
|-------------------------------------------|--------------------[16]------|
|-------------------------------------------|------------------------------|
|-------------------------------------------|------------------------------|
|-------------------------------------------|------------------------------|
|
|   PM---|      PM-------|    PM----------|
|-------------------------------------------|------------------------------|
|-------------------------------------------|------------------------------|
|------------9-------------7----------------|--7p====6-------------0---2---|
|------------9-------------7----------------|-----------7\---------0---2---|
|------------7-------------x----------------|----------------------x---0---|
|---0--0-0------0-0---0--0----0-0----0----0-|------------------0---3-------|


                                                                                                     ~~~~~~~~~~~~~
|---------------12----------12----------------|--------------------------------------------------------------------|
|---15b17----------15p12----------------------|-12--------12-14-15-12-12-------------------------------------------|
|-x----------------------15----15-14p12----12-|-----14-16----------------16-15-14-12----12--14b16==(14)-(14)-(14)--|
|-x-------------------------------------14----|--------------------------------------14----------------------------|
|---------------------------------------------|--------------------------------------------------------------------|
|---------------------------------------------|--------------------------------------------------------------------|
|
| PM------|
|---------------------------------------------|--------------------------------------------------------------------|
|---------------------------------------------|--------------------------------------------------------------------|
|-----------9---12--------7--------7----------|--------------------------------------------------------------------|
|-----------9---12--------7--------7----------|--x/--------------------------------------x/------------------------|
|-----------7---10--------5--------5----------|--x/--------------------------------------x/------------------------|
|-0--0----0---x-------------------------------|--x/--------------------------------------x/------------------------|


|------------------------------------------------------|
|------------------------------------------------------|
|-14b16r14-12------11h12p11----11-------11-------------|
|---------------14----------14----12-14----14-12-11-12-|
|------------------------------------------------------|
|------------------------------------------------------|
|
|  PM---------|           PM---|
|------------------------------------------------------|
|------------------------------------------------------|
|-------------------9-----------------7----------------|
|-------------------9-----------------7----------------|
|-------------------7-----------------x----------------|
|--0--------0-0-----------0--0--0-----------------0--0-|


               ~~~                          ~~                          ~~~~~~~
|----------------------------|-------------------------------------------------------|
|----------------------------|-----12b12.5----------------15------(15)-15-(15)-------|
|--------------------x\--x\--|-----12b12.5----------------12b12.5------12-(12)-------|
|-11----11-------------------|---x---------14-----------x--x--------x---x--(x)-------|
|----14----12s14----14\--x\--|-x----------------------x------------------------------|
|--------------------x\------|-------------------------------------------------------|
|
|                                   PM--------|   PM--------------|         PM-----|
|--------------------3---x---|-------------------------------------------------------|
|--------------------3---3---|-------------------------------------------------------|
|--7p====6-----------0---2---|------------------9-----------------------7------------|
|--------------7\----0---0---|------------------9-----------------------7------------|
|--------------------x-------|------------------7-----------------------x------------|
|-----------------0--3-------|------0-------0-0---0-0------0--------0-------0--0-0-0-|


                       ~~~~~         ~~
|--------------------------------------|
|-----12----12-14b15--14---------------|
|-----12----12-14b15--14-----12-14-----|
|---x----14-------------------------14-|
|-x------------------------------------|
|--------------------------------------|
|
|                      ~~~~~
|--------------------------------------|
|--------------------------------------|
|--------------[7]---([7])-6-----------|
|--------------------------------7\----|
|-5s===7--5--4-------------------------|
|--------------------------------------|


      ~~
|------------------------------------------------------------|
|-12-15---------17-15---12------12-15---17---15-12--------12-|
|-12-------------------------15----------------------15------|
|------------------------------------------------------------|
|------------------------------------------------------------|
|------------------------------------------------------------|
|
|  PM---|   PM--------|               PM----------------|
|------------------------------------------------------------|
|------------------------------------------------------------|
|---------9----------------7---------------------------------|
|---------9----------------7---------------------------------|
|---------7----------------x---------------------------------|
|--0--0-0---0-0--0----0---------------0----0-------0----0----|


                                                                                                                    ~~~~
|----------------------------------------------------------------------------|-12-------------------------------------------------|
|-15-17-15---12----12----15-17-15---12----12-15-17-15-12------12-15-17-15-12-|----12---------------------------------------12b15--|
|---------------15---------------------15----------------15------------------|-------15p==14p==12-----------14-14-(14)------------|
|----------------------------------------------------------------------------|----------------------14-12----------------0--------|
|----------------------------------------------------------------------------|----------------------------------------------------|
|----------------------------------------------------------------------------|----------------------------------------------------|
|
|                                                                               PM-----------|
|----------------------------------------------------------------------------|----------------------------------------------------|
|----------------------------------------------------------------------------|----------------------------------------------------|
|--7p======6-------------------------------0----------------2----------------|--------------------9----------------12--7-7--------|
|---------------------7\-------------------0----------------2----------------|--------------------9----------------12--7-7--------|
|------------------------------------------x----------------0----------------|--------------------7----------------10--5-5--------|
|---------------------------------0--------3---------------------------------|--0-------0----0------------x-----------------------|


|-----------------------------|-----------------------------------------------|
|-12--10-8-7---7--------------|-----------------------------------------------|
|------------9---9--7-9-7-5-7-|-5-4---5---4-2---4---2h4p2p==0---0h2h4p2p0-----|
|-----------------------------|-------------------------------4-------------4-|
|-----------------------------|-----------------------------------------------|
|-----------------------------|-----------------------------------------------|
|
|                               PM------|     PM----|
|-----------------------------|-----------------------------------------------|
|-----------------------------|-----------------------------------------------|
|-----------------------------|-----------9---------------7-------------------|
|--x/------------x/-----------|-----------9---------------7-------------------|
|--x/------------x/-----------|-----------7---------------x-------------------|
|--x/------------x/-----------|-0---0---0-----0---0-0-----------------0---0---|


                                   ~~~
|--------------------------------------|
|--------------------------------------|
|--------------------------------------|
|-2p0h2h4p2p0h(2)p(0)------------------|
|-----------x---------2h3p2p0----------|
|---------------------------x-3s5-(5)--|
|
|-----------------------------3----x---|
|-----------------------------3----3---|
|-7p====6---------------------0----2---|
|--------------7\-------------0----0---|
|-----------------------------x--------|
|-----------------------0-----3--------|


|------------------------------------|
|-12---------12---(12)---12-----14---|
|-12---------12---(12)---12-----14---|
|----14---14-------------------------|
|------------------------------------|
|------------------------------------|
|
|  PM---|     PM-------|    PM-----|
|------------------------------------|
|------------------------------------|
|----------9--------------7----------|
|----------9--------------7----------|
|----------7--------------x----------|
|--0--0-0-----0-0---0--0----0-0--0-0-|


|-------------------------------------|--------------------------------|
|---14b16r(14)-12-12--(12)-----12--14-|-14b18--------------------------|
|---14b16r(14)-12-12--(12)-----12--14-|-14b18--------------------------|
|---------------------------14--------|--------------------------------|
|-------------------------------------|--------------------------------|
|-------------------------------------|--------------------------------|
|
|                       ~~~~~            PM-----|   PM----|   PM----|
|-------------------------------------|--------------------------------|
|-------------------------------------|--------------------------------|
|-----------------[7]-([7])--6--------|-----------9---------7----------|
|-------------------------------7\----|-----------9---------7----------|
|-5s=7------5---4---------------------|-----------7---------x----------|
|-------------------------------------|--0----0-0---0-0-0-0---0-0-0-0--|


                   ~~~
|----------------------|-------19b21==(19)---(19)r==(19)--|
|-(x)------------------|-0--------------------------------|
|-(x)------------------|-0--------------------------------|
|-----x\---------------|----------------------------------|
|----------------------|----------------------------------|
|-------------1s5-(5)--|----------------------------------|
|
|                        PM--|
|----------------------|----------------------------------|
|----------------------|----------------------------------|
|--7p=6-------0----2---|--------9-------------12--7---7---|
|--------7\---0----2---|--------9-------------12--7---7---|
|-------------x----0---|--------7-------------10--5---5---|
|-----------0-3--------|-0-0-0-------------x--------------|


                         ~~~
|-15h=17p15----15--------------*|
|-----------17----17b20-17-----*|
|------------------------------*|
|------------------------------*|
|------------------------------*|
|------------------------------*|
|
|------------------------------*|
|------------------------------*|
|------------------------------*|
|--x/--------------------x/----*|
|--x/--------------------x/----*|
|--x/--------------------x/----*|



Comments