Osbourne Ozzy - Revelation Mother Earth(live) Chords & Tabs

 

Revelation Mother Earth(live) Chords & Tabs

Osbourne Ozzy Chords & Tabs

Version: 1 Type: Tab 0 ratings
1 star 2 stars 3 stars 4 stars 5 stars
comments

Revelation Mother Earth(live) Tab

   
Ozzy Osbourne
Revelation Mother Earth (live) 

Gtr I (E A D G B E) - 'Untitled'
Gtr II (E A D G B E) - 'Untitled'

 Intro
  Q=108
            Em                    B7/D#            Em
 4/4
  Gtr I
|-----------||-3-----2-(2)---0--|-2--------------|-3-----2-(2)---0--|
|-----------||-----0-------0----|----0h1-0-------|-----0-------0----|
|-------3-4-||---0------0-------|------------3-4-|---0------0-------|
|-----------||-2----------------|-1--------1-----|-2----------------|
|-----------||------------------|----------------|------------------|
|-----------||------------------|----------------|------------------|


  B7               Em                  G
|-2--------------|-3-----2-(2)---0h2-|-3--------3p=2-2h3p2p0--|
|-----1--0-------|-----0-------0-----|-------0-(0)------------|
|------------3-4-|---0------0--------|-----0------------------|
|-1--------------|-2-----------------|------------------------|
|---2------2-----|-------------------|---2--------------------|
|----------------|-------------------|-3----------------------|


  D             B7/D#           F#° Am      F#°   Em
|------3p2----|-2-------------|-----------------|-0--7-6-7-5-----|
|-3-----------|---0-1--0------|-^7--^5--^5--^4--|-0----------8-7-|
|----2--------|-----------3-4-|-^5--^5--^5--^2--|-0--------------|
|-0-----------|-1-------------|-^7--^7--^7--^4--|-2--------------|
|-------------|---------------|-----------------|----------------|
|-------------|---------------|-----------------|----------------|


                   1st Verse
                    Em                 B7                   Em
|---7-5s3-5------||-3-----2-(2)---0--|-2--------------2p0-|-3-----2-(2)---0--|
|-8-8-7s5-7------||-----0-------0----|-----0h1-0----------|-----0-------0----|
|------------3h4-||---0------0-------|---2------------|---0------0-------|
|----------------||-2----------------|-1------------------|------------------|
|----------------||------------------|--------------------|------------------|
|----------------||------------------|--------------------|------------------|


  B7               Em                 G                D
         T T
|-2---3----------|-3-----2-(2)---0--|-3--------------|---------0---||
|---0----1p0-----|-----0-------0----|-----0--3-------|-------3-----||
|------------3s4-|---0------0-------|---0------------|-----2-------||
|-1--------------|-2----------------|----------------|-0-----------||
|----------------|------------------|----------0-2---|-------------||
|----------------|------------------|-3------------0-|-------------||


 2nd Verse
  B7/D#            F° Am    F°   Em
|-2--------------|-------------|----7-6-7p5-----|-----7-5s3-5-5------|
|-----0h1-0------|-7--5--5--4--|----8---8---8p7-|-----8-7s5-3s7------|
|---2--------3-4-|-5--5--5--2--|----------------|----------------3-4-|
|-1--------------|-7--7--7--4--|----------------|--------------------|
|----------------|-------------|----------------|--------------------|
|----------------|-------------|-0--------------|-----------------|


  Em                 B7                     Em                 B7
|-3-----2-(2)---0--|-2--------------------|-3-----2-(2)---0--|-2s3s2s3--------|
|-----0-------0----|----0-1-0h1p0h1p0-----|-----0-------0----|---------1--0---|
|---0------0-------|------------------3-4-|---0------0-------|----------------|
|-2----------------|-1--------------------|-2----------------|----------------|
|------------------|----------------------|------------------|----------------|
|------------------|----------------------|------------------|----------------|


  Em                 G                   D                   B7/D#
|-3-----2-(2)---0--|-3-----3-(3)-2-3s5-|--------2-(2)------|-2------------|
|-----0-------0----|-------------------|----3h5--------3---|----1--0------|
|---0------0-------|-----0-------------|-----------------2-|----------3-4-|
|-2----------------|---0---------------|-0-----------------|-1------------|
|------------------|-------------------|-------------------|--------------|
|------------------|-3-----------------|-------------------|--------------|


                                                3rd Verse
  F° Am    F°   E5                      B5       E5
                                        Gtr II
|-------------|----0-----0--|----0--(0)-------||----0--(0)-0----|
|-7--5--5--4--|-------0-----|-0---------------||----0--(0)---0--|
|-5--5--5--2--|-------------|-----------4-4/--||-9--------------|
|-7--7--7--4--|-------------|-----------4-4/--||-9--------------|
|-------------|-------------|-----------2-2/--||-7--------------|
|-------------|-0-----------|-----------------||-0--------------|


                  Bb5                          E5
|----0----------|---------------|------------|----0--(0)-0----|
|----0----------|---------------|------------|----0--(0)---0--|
|-9-------(9)\--|-3----(3)----1-|-(1)--------|-9--------------|
|-9-------(9)\--|-3----(3)-3----|------------|-9--------------|
|-7-------(7)\--|-1----(1)------|------------|-7--------------|
|-0-------------|---------------|------------|-0--------------|


                    Bb5                             E5
|-----------0-----|---------------|---------------|----0--(0)-----|
|----0--(0)-------|-------------1-|-(1)-----------|----0--(0)-0---|
|-9-----------9\--|-3----(3)------|----------\x/--|-9-------------|
|-9-----------9\--|-3----(3)-3----|----------\x/--|-9-------------|
|-7-----------7\--|-1----(1)------|----------\x/--|-7-------------|
|-0---------------|---------------|---------------|-0-------------|


                  Bb5                            E5
|---------------|----------1--|-(1)------------|----0--(0)-----|
|----0----------|---------(x)-|----------------|----0--(0)-0---|
|-9-------(9)\--|-3-----------|-(3)------------|-9-------------|
|-9-------(9)\--|-3-----------|-(3)------------|-9-------------|
|-7-------(7)\--|-1-----------|-(1)------------|-7-------------|
|---------------|-------------|----------/18\--|-0-------------|


                    Bb5                           B5 C5  A5
|----0--(0)-0-----|------------|----------------|----------------|
|----0--(0)-x-----|----------1-|-(1)------------|----------------|
|-9-----------9\--|-3------1---|------xs=xs=x\--|-4--5-x-2---x-x-|
|-9-----------9\--|-3----------|-(3)------------|-4--5-x-2---x-x-|
|-7-----------7\--|-1----------|-(1)------------|-2--3-x-0---x-x-|
|-0---------------|------------|----------------|----------------|


  B5 C5  A5        C5 B5         E5
                         ~~~~~
|----------------|-------------|----0--0-----|
|----------------|-------------|---------0---|
|-4--5-x-2---2-x-|-5--x--------|-------------|
|-4--5-x-2---2-x-|-5--4--------|-------------|
|-2--3-x-0---0-x-|-3--2--------|-------------|
|----------------|-------3--2--|-0-----------|


                                    4th Verse
                                     E
                                                                ~~~~
|-----0--------------(5)-------||-------0--(0)-----|--------------------|
|---0--------------------------||-------0--(0)-0---|-(0)----------------|
|------------------------------||------------------|--------------------|
|------------------------------||------------------|--------------------|
|---------------------------------||-9h11-------------|--9s11-(11)----11\--|
|-0--------------------------12\--||----0-------------|--------------------|


  Bb5                                  E5
           PM|
|----------------|-------------------|----0--(0)-0----|--------------------|
|--------------1-|-(1)---------------|----0--(0)---0--|-(0)----------------|
|-3----(3)-------|------1h3p1--------|-9--------------|--------------------|
|-3----(3)---3---|------------3--x/--|-9--------------|--------------------|
|-1----(1)-1-----|---------------x/--|-7--------------|--9s11-(11)----11\--|
|----------------|-------------------|-0--------------|--------------------|


  Bb5                                      E5
       PM                   ~~~ PM----|
|----------------|-----------------------|----0--(0)---------|
|----------------|-----------------------|----0--(0)-0-------|
|-3--------1h3p1-|-(1)-(1)-(1)-----------|-9-----------------|
|-3----x-3-------|-----------------------|-9-----------------|
|-1----1---------|--------------------x/-|-7------------7h9--|
|----------------|--------------0-0-0----|-0-----------------|


  E                        E5                         E5
|------------------------|----------|---------------|----0--(0)-----|
|-(0)--------------------|----------|---------------|----0--(0)-0---|
|------------------------|-3--------|-(3)-----------|-9-------------|
|------------------------|-3--------|-(3)-----------|-9-------------|
|--9s11-(11)--(11)-11\---|-1--------|-(1)-----------|-7-------------|
|------------------------|----------|----------18\--|-0-------------|


  E                   Bb5                      B5 C5 A5
|-------------------|----------|-------------|-------------|
|-(0)---------------|----------|-------------|-------------|
|-------------------|-3--------|-xs=xs=xs=x--|-x--x--2-----|
|-------------------|-3--------|-------------|-4--5--2--2--|
|--9s11-(11)--------|-1--------|-------------|-2--3--0--0--|
|---------------x\--|----------|-------------|-------------|


  B5 C5 A5      C5 B5          E5      Bb5    N.C. E°
                      ~~~~~                        PM------------|
|-------------|-------------||--------------|--------------------5--|
|-------------|-------------||--------------|------------5-(5)------|
|-x--xS=2-----|-x--x--------||----9s=x-3----|----------3-------3----|
|-4--5S=2--2--|-5--4--------||----9s=x-3----|------2-5--------------|
|-2--3S=0--0--|-3--2--------||----7s=x-1----|-----------------------|
|-------------|-------3--2--||-0----------1-|-2---------------------|


  E5      Bb5    N.C.         E°                E5      Bb5
                              PM------------|
|--------------|----------------------------3-|--------------|
|--------------|--------------------5-(5)-----|--------------|
|----9s=x-3----|------------------3-------3---|----9s=x-3----|
|----9s=x-3----|--------------2-5-------------|----9s=x-3----|
|----7s=x-1----|------------------------------|----7s=x-1----|
|-0----------1-|-2b3r=(2)-(2)-----------------|-0----------1-|


  N.C.  E°                C5 B5          Em
                                         Gtr I
  ~~~~~ PM------------|         ~
|---------------------5-|--------------|-------------------|
|-------------5-(5)-----|--------------|---8p(7)-8-7---7h8-|
|-----------3-------3---|--------------|-------------9-----|
|-------2-5-------------|-5--4---------|-------------------|
|-----------------------|-3--2---------|-------------------|
|-2--2------------------|-------3--2p0-|-0-----------------|


                       Interlude
                        Em
|-7------------------||---------------------|
|---10-8-----7-----8-||-8-----(8)-8-----7h8-|
|--------(9)---9-----||-----9-------(9)-----|
|----------------9---||---9-----------------|
|--------------------||-7-------------------|
|--------------------||---------------------|


  F#°              D
|----------------|--------------------|
|-7-------7------|-7--7s8-8s10-10s(8)-|
|-----8-8---8----|--------------------|
|-------------10-|-0------------------|
|----------------|--------------------|
|----------------|--------------------|


   G                  A7/C#             Am/C               B7
|-----------------|---------3-(3)-----|-------5-(5)------|-------------|
|--8------------8-|-8s5---5--------5--|-----5------------|----4--5--7--|
|----7--------7---|-----2-------------|---2----------2---|-------------|
|------9----9-----|-------------------|----------------2-|-------------|
|--------10-------|-7s4---------------|-3----------------|-2-----------|
|-----------------|-------------------|------------------|-------------|

[ Tab from: http://www.guitartabs.cc/tabs/o/osbourne_ozzy/revelation_mother_earthlive_tab.html ]
  Em                                  F#°           D
                                                    PM
|------------------|----------------|-------------|------------------|
|-8---8-(8)-7--5h7-|-8-------8p7----|-7-----------|----7s8-8s10-10s8-|
|------------------|-------9-----9--|------8------|------------------|
|------------------|-----9----------|---------10--|------------------|
|------------------|---7------------|-------------|-5----------------|
|------------------|----------------|-------------|------------------|


  G                 A7/C#              Am/C                B7
|-7-------------3-|-------3-(3)------|-------5-(5)-------|-------------|
|---8---------0---|---5-----------5--|-----5-------5-----|----4--5--7--|
|-----7-----4-----|-----2-------2----|---2-----------2---|-------------|
|-------9-5-------|------------------|-------------------|-------------|
|-----------------|-4----------------|-3---------------3-|-2-----------|
|-----------------|------------------|-------------------|-------------|


  Em                                    F#°              D
                                                     PM  PM
|---------------------|---------------|--------8-------|---------------------|
|-8s7-8s10-12s10-10s8-|-8----------8--|-7----------7---|----7s8-8s10-10s(12)-|
|-9s8-9s11-12s11-11s9-|-9-------9-----|-----8-(8)------|---------------------|
|---------------------|-------9-------|----------------|---------------------|
|---------------------|---7-7---------|--------------9-|-5-------------------|
|---------------------|---------------|----------------|---------------------|


  G                     A7/C#              Am/C                  B7
|---------------------|------------------|---------------------|-------------|
|-12----------------8-|-------8-(8)------|-------10-(10)-------|----4--5--7--|
|-12-12-----------7---|-9---7---------9--|-----9---------9-----|-------------|
|-------12-9----9-----|-------------7----|---7-------------7---|-------------|
|------------10-------|------------------|-------------------7-|-2-----------|
|---------------------|---9--------------|-8-------------------|-------------|


  Em                                 F#°                D
                                                        PM
|------------------|---------------|----------8-------|------------------|
|-8------7-(7)--8--|-8---7-(7)--8--|-7----(7)---10----|----7s8-8s10-10s8-|
|----(9)-----------|---------------|---------------11-|------------------|
|------------------|---------------|------------------|------------------|
|------------------|---------------|------------------|-5----------------|
|------------------|---------------|------------------|------------------|


  G                  A7/C#              Am/C                 B5 C5
                                                      Gtr II
                                                                   ~~~~~
|-7----------------|------------------|--------------------|-------------|
|---8------------8-|-------8-(8)------|-------10-(10)------|-------------|
|-----7--------7---|-9-------------9--|-----9---------x\---|-x--x--------|
|-------9----9-----|-----7---------7--|---7----------------|-4--5--------|
|---------10-------|------------------|--------------------|-2--3--------|
|------------------|---9---------9----|-8------------------|-------3--2--|


  E5      Bb5    N.C.  E°                E5      Bb5    N.C.  E°
                 ~~~~~ PM------------|                  ~~~~~ PM------------|
|--------------|---------------------3-|--------------|---------------------3-|
|--------------|-------------5-(5)-----|--------------|-------------5-(5)-----|
|----9s=x-3----|-----------3-------3---|----9s=x-3----|-----------3-------3---|
|----9s=x-3----|-------2-5-------------|----9s=x-3----|-------2-5-------------|
|----7s=x-1----|-----------------------|----7s=x-1----|-----------------------|
|-0----------1-|-2--2------------------|-0----------1-|-2--2------------------|


  E5      Bb5    N.C.  E°                C5 B5
                 ~~~~~ PM------------|         ~~~~~
|--------------|---------------------3-|-------------||
|--------------|-------------5-(5)-----|-------------||
|----9s=x-3----|-----------3-------3---|-------------||
|----9s=x-3----|-------2-5-------------|-5--4--------||
|----7s=x-1----|-----------------------|-3--2--------||
|-0----------1-|-2--2------------------|-------3--2--||


 Guitar Solo
  Faster Q=166
  Em                E°                          Em
    PM----------|     PM----|                      PM----------|
|-----------------|---------------------------|------------------|
|-----------------|-5-------------------------|------------------|
|-----------------|-3-------------------------|------------------|
|-----------------|-5---------------4h5p4h5p4-|------------------|
|-7---------------|-----------4h5h7-----------|-7\---------------|
|-0-0-0-0-0-0-0-0-|---0-0-0-0-----------------|----0-0-0-0-0-0-0-|


  E°    B                       Em                 E°
    PM|                            PM----------|     PM----|
|-----------------------------|------------------|---------------------------|
|-5-----4-(4)-----------------|------------------|-5-------------------------|
|-3-----4-(4)-4h5p4---4-------|------------------|-3-------------------------|
|-5-----4-(4)-------7---7p5p4-|------------------|-5---------------4h5p4h5p4-|
|-------2-(2)-----------------|-7\---------------|-----------4h5h7-----------|
|---0-0-----------------------|----0-0-0-0-0-0-0-|---0-0-0-0-----------------|


  Em                  E°    B7             B
      PM----------|     PM|
|-------------------|--------------------|-----------------------------------|
|-------------------|-5------4--(4)------|---------------------------4h5p4h5-|
|-------------------|-3------2--(2)------|-----------------4h5-4-(5)---------|
|-------------------|-5------4--(4)------|-1h2p1h2-4h5p4h5-------------------|
|-7\----------------|-------(2)-(2)------|-----------------------------------|
|-----0-0-0-0-0-0-0-|---0-0----------7\--|-----------------------------------|


|---------7h8p7h8-11h12p11h12-/12h14p12-(14)-|
|-7h8p7h8------------------------------------|
|--------------------------------------------|
|--------------------------------------------|
|--------------------------------------------|
|--------------------------------------------|


|-/14h15p14h15-15h17p15h17-17h19p17h19-19-20-19--|
|------------------------------------------------|
|------------------------------------------------|
|------------------------------------------------|
|------------------------------------------------|
|------------------------------------------------|


                              Em
|-17-19-15-19-14b14.5-------|-----7-8-7-8-7----7-10-|-8-7-8p7----7-----------|
|----------------------17\--|---8-x---------10------|---------10---10-8p7----|
|---------------------------|-9---------------------|---------------------10-|
|---------------------------|-----------------------|------------------------|
|---------------------------|-----------------------|------------------------|
|---------------------------|-----------------------|------------------------|


  B
  ~         ~~           ~~       ~~~~~~~~~~
|---------------------|----22-20-19-(19)-19-19-19-|
|---------------------|---------------------------|
|-8---8s14-14---14s20-|-20------------------------|
|---------------------|---------------------------|
|---------------------|---------------------------|
|---------------------|---------------------------|


  Em
|-22p20p19----19---------------------------------------|
|----------22----22p20p19------------------------------|
|-------------------------21S16h17p16------------------|
|-------------------------------------19-17p16p14------|
|-------------------------------------------------17---|
|------------------------------------------------------|


|----------------------------------------------------|
|----------------------------------------------------|
|----------------------------------------------------|
|-14h15p14----14-------------14h15p14----------------|
|----------17----17-14h15h17----------17-15p14-------|
|----------------------------------------------17-15-|


  B
   ~~~~~~~~~~
|------------------------------|
|------------------------------|
|------------------------------|
|------------------------------|
|------------------14----------|
|-14----(14)-15h17----17p15-14-|


                              C
|------------------12h13h15-|-13p12-10h12p10---------------------7h8h10s12-x--|
|---------------------------|----------------13p12p10-x-x-7-8-10--------------|
|---------------------------|-------------------------------------------------|
|---------------------------|-------------------------------------------------|
|---------------------------|-------------------------------------------------|
|-(14)b15r===(14)-----------|-------------------------------------------------|


                                      B
|-12-0-0-0-10-0-0-0-8-0-0-0-7-0-0-0-|-5h7p5---5---------------------------|
|-----------------------------------|-------8---8p7p5---5-----------------|
|-----------------------------------|-----------------7---7p5---4---------|
|-----------------------------------|-------------------------x---7-5-4---|
|-----------------------------------|-----------------------------------7-|
|-----------------------------------|-------------------------------------|


                  Em
|---------------|-----------------------|------------------------|
|---------------|-----------------------|------------------------|
|-4-------------|-----------------------|---------------4h5p4h5--|
|----[7]--5--4--|---------------4h5p4h5-|------------------------|
|---------------|-7\--------5-7---------|-7\--------5-7----------|
|---------------|-----0-0-0-------------|-----0-0-0--------------|


                            B                Em
                                                  PM|
|-------------------------|---------------||--------------|
|-------------------------|---------------||-8------------|
|-------------------------|---------------||-9------------|
|---------------4h5p4h5p4-|-------4h5-4---||-9------------|
|-7\--------5-7-----------|-6--7--------7-||-7----7-9-10--|
|-----0-0-0---------------|---------------||--------------|


  D/F#               G5
  PM|     PM|
|------------------|------------------|
|-----10-----------|-8---8-(8)--------|
|------7-----------|-7---7-(7)--------|
|----------------7-|-5---5-(5)-7-9s10-|
|-9-9-----9-9-10---|------------------|
|------------------|------------------|


  B                            Em
                                    PM|
|----------------------------|--------------------|
|----------------------------|--------------------|
|----------------------------|--------------------|
|-9-9s13--13s16-(16)---(16)\-|-9------------------|
|----------------------------|-7----7-9-10b12r====|
|----------------------------|-0------------------|


  D/F#                    G5
                PM
|-----------------------|--------------------------|
|-------10-(10)---------|--------------------------|
|--------7--(7)---------|--------12-(12)-----------|
|-----7-----------------|-----12-------------------|
|-9-9-----------9-10-11-|-10-------------/14-14s15-|
|-----------------------|--------------------------|


  B                          Em
              ~~~~
|--------------------------|--------------|
|--------------------------|--------------|
|--------------------------|-9------------|
|-----------[16]-(16)---x\-|-9------------|
|-14-14s18-----------------|-7----7-9-10--|
|--------------------------|-0------------|


  D/F#                    G5
                PM
|-----------------------|------------------|
|-------10-(10)---------|------------------|
|-----x--7--(7)---------|-12--12----(12)\--|
|---7-------------------|-12--12----(12)\--|
|-9-------------9-10-12-|-10--10----(10)\--|
|-----------------------|------------------|


  B5  C5     C#5      D5  D#5E5
|---------------|---------------|------*|
|---------------|---------------|------*|
|-4---5-(5)--6--|-(6)-7---8--9--|------*|
|-4---5-(5)--6--|-(6)-7---8--9--|------*|
|-2---3-(3)--4--|-(4)-5---6--7--|-7----*|
|---------------|---------------|-0----*|



Comments