Osbourne Ozzy - Paranoid Live Chords & Tabs

 

Paranoid Live Chords & Tabs

Osbourne Ozzy Chords & Tabs

Version: 1 Type: Tab 4 ratings
1 star 2 stars 3 stars 4 stars 5 stars
comments

Paranoid Live Tab

   
ARTIST: Ozzy Osbourne
ALBUM: Speak Of The Devil (1982)
SONG: Paranoid

This is "Paranoid" from the Speak of The Devil album (featuring Brad Gillis on Guitar)...

INTRO:
E:----------------------------------
B:----------------------------------
G:----------------7h9-----7h9-------
D:----7h9-9-9-7h9-----7h9-----------
A:----7---7-7-----------------------
E:----------------------------------

RIFF A:
E:--------------------------------------------------
B:--------------------------------------------------
G:----------------------------------------7---------
D:-9x9x9x9x9x9x9x9x9x9x9x9x----------7~~--5-7-9-----
A:-7x7x7x7x7x7x7x7x7x7x7x7x-----5h7--5~~----5-7-----
E:--------------------------5h7---------------------

RIFF B:
E:--------------------------------------------
B:--------------------------------------------
G:--------------------------------------------
D:--9----5--7--9x9x9x9x9x9x9x9x9x9x9x9x9x9x9x-
A:--7-//-3--5--7x7x7x7x7x7x7x7x7x7x7x7x7x7x7x-
E:--------------------------------------------
[ Tab from: http://www.guitartabs.cc/tabs/o/osbourne_ozzy/paranoid_live_tab.html ]
RIFF C:
E:-----------------------------------------------------------------
B:-----------------------------------------------------------------
G:----------------------------------------------------------7------
D:---9~~~----------------7~~~----------xx9xx9xx9---------7~-5-7-9--
A:---7~~~----------------5~~~----------xx7xx7xx7-----5h7-5~---5-7--
E:-----------------------------------------------5h7---------------
       Can You Help Me?      Occupy My Brain...   Whoa, Yeah!

SOLO:
In this version of "Paranoid", Brad Gillis does one hell of a mixed solo! Basically he starts off with 'tapping' the notes, and then goes into some other crazy techniques. I'm sorry, but I do not know exactly what notes Gillis plays in this solo, so I would strongly suggest learning how to play the original "Paranoid" Guitar Solo, and just going from there...

*In the live version, there is NO rhythm guitar playing along behind the solo, but there is, of course, Rudy Sarzo wailing on the notes to Riff A on his bass guitar!
_______________________________________
ORDER:

INTRO		4X
RIFF A	2X
RIFF B	2X
RIFF A	2X
RIFF C	1X
RIFF A	4X
SOLO	  (See Above)
RIFF A	4X
RIFF B	2X
RIFF A	4X

That's it... now Ozzy says "Thank You, Goodnight, You're The Greatest People!" and it's over...
Good Luck, and have fun~
(ab)
Comments